Damage - Wonderful Tonight Chords & Tabs

 

Wonderful Tonight Chords & Tabs

Damage Chords & Tabs

Version: 1 Type: Tab 0 ratings
1 star 2 stars 3 stars 4 stars 5 stars
comments

Wonderful Tonight Tab

   
Wonderful Tonight by Damage 

Tabber - Jake Chen (hoowahhh) 

It's hell of a good song that was originally by Clapton by Damage covered the song 
and really made it their own. Nice RnB styled vocals to make it really sound great, 
and I know that no one would have known them, so here's the tab I made. 

[{(=================================================================)}]
[{(========================First Guitar Part========================)}]
[{(=================================================================)}]
Simple rhythm part, not difficult at all should fall in exactly with the
song. 

Intro

E|-2---3--2---3--0---3--------0-|
B|--3------3------3----3-3---3--|
G|---0------0------0---0-2--2---|
D|--------0----------------0----|
A|---------------3--------------|
E|-3----------------------------| x2

Verse

E|-2---3--2---2-3--0----3----0-|
B|--3------3--------3-------3--|
G|---0------0--------0-----2---|
D|--------0---------------0----|
A|-----------------3-----------|
E|-3---------------------------| x2

Pre-Chorus

E|----3----2-----------------|
B|-3------3-----3-----3----0-|
G|--0----2-----0-----0----0--|
D|---2--0-----0-----0----0---|
A|-3-------------------------|
E|-----------3----2----0-----|

Chorus - Finish this part then back to Intro

E|----3----0-|
B|-3------3--|
G|--0----2---|
D|---2--0----|
A|-3---------|
E|-----------|

Bridge - Same as Pre Chorus and Chorus, then this

E|-3--2--0-|
B|-3--3--0-|
G|-0--2--0-|
D|-0--0--2-|
A|-2-----2-|
E|-3-----0-|

Verse 3 - Just strum and let them ring (G,D,Csus,D)

   G  Csus D
E|-3-|-3-|-2-|
B|-3-|-3-|-3-|
G|-0-|-0-|-2-|
D|-0-|-2-|-0-|
A|-2-|-3-|---|
E|-3-|---|---|


Ending - Same as Verse 3

[{(==================================================================)}]
[{(========================Second Guitar Part========================)}]
[{(==================================================================)}]

This is section is really really tricky, the parts that are probably easiest to
capture is the Intro bits since you can actually hear them, but the other parts 
require a little bit more of close hearing. 

Verse 1 - after the D chord and the other part after the C chord
[ Tab from: http://www.guitartabs.cc/tabs/d/damage/wonderful_tonight_tab.html ]
E|-----|-------|
B|-----|-------|
G|-4-2-|-------|
D|-5-0-|-----0-|
A|-----|--0h2--|
E|-----|-3-----|

Intro 2

E|--------------------------------------------|
B|-10h12p10--10-10h12p10---------------8h10-8-|
G|---------12-----------12-9--5-2--7-9--------|
D|----------------------------4-0-------------|
A|--------------------------------------------|
E|--------------------------------------------|

E|---------------------------------------------12-10-|
B|-10h12p10--10--12-13-12---10h12h10---10-12-13------|
G|---------12------------12---------12---------------|
D|---------------------------------------------------|
A|---------------------------------------------------|
E|---------------------------------------------------|

Verse 2 - End of the last verse

E|--------------------|
B|--------10-12-13-12-|
G|-9-11-13------------|
D|--------------------|
A|--------------------|
E|--------------------|

E|---10h12-10------|
B|-13--------13-12-|
G|-----------------|
D|-----------------|
A|-----------------|
E|-----------------|

Chorus - Do the first part on the part in between changing chords and the second part
         during the D chord

E|--------|-----------------|
B|--3h5-3-|-8h10p8-7-8-7-5--|
G|-5------|---------------7-|
D|--------|-----------------|
A|--------|-----------------|
E|--------|-----------------|

Intro 3

E|-------------------------------------------------|
B|-10h12p10--10-10h12p10---------------8h10p8----8-|
G|---------12-----------12-9--5-2--7-9-------9-7---|
D|----------------------------4-0------------------|
A|-------------------------------------------------|
E|-------------------------------------------------|

Verse 3 - After first verse, second part right before pre chorus

E|-------------|--------------|
B|-------------|-------8-10-8-|
G|-------5-4-2-|-7-9-11-------|
D|-2-4-5-------|--------------|
A|-------------|--------------|
E|-------------|--------------|

Pre Chorus into Chorus

E|---------------------------------------------------|
B|-10h12p10-13-12-13-12----7-8-5--------------5------|
G|----------------------12--------5h7-5-4-5-7---7----|
D|-----------------------------------------------7-5-|
A|---------------------------------------------------|
E|---------------------------------------------------|
Comments