Dalby Ashley - Temptation Revelation Chords & Tabs

 

Temptation Revelation Chords & Tabs

Dalby Ashley Chords & Tabs

Version: 1 Type: Tab 0 ratings
1 star 2 stars 3 stars 4 stars 5 stars
comments

Temptation Revelation Tab

TEMPTATION REVELATION
Ashley Dalby
The Gate Of Hell Album

 Piano
------------------2-------------------------2-------------------------2--
-2-------2-------2---3-----2-------2-------2---3-----2-------2-------2---3----
-----4-------4-----------------4-------4-----------------4-------4------------
------------------------------------------------------------------------------
-2-------------------------1-------------------------0------------------------
------------------------------------------------------------------------------
                                                                             
 Guitar
|-----------------------------------------------------------------------------
|-------------------------7b9r7------------53-5b7-------------------------r5-
|-----------------------------------------------------------------------------
|-----------------------------------------------------------------------------
|-----------------------------------------------------------------------------
|-----------------------------------------------------------------------------
|                                                                             
|Piano
|----------------------2--2-3---2-------2-----2-----2-----2-----2----5-----4--
|2-------2-------2---3--------------3---3-----3-----3-----3----------3-----3--
|----4-------4--------------------------4-----4-----4-----4-------------------
|-----------------------------------------------------------------------------
|-----------------------------------------------------------------------------
|4------------------------------3----------3-----3-----3--2--2--2--2-1--1--0--
                                                                              
 Guitar
|-----------------------------------------------------------------------------
|3----------------------10----10-10-10br---8--7--8-/--12br-----10-------------
|-----11-11-11br-9-7-----------------------------------------------12-11---11-
|-----------------------------------------------------------------------------
|-----------------------------------------------------------------------------
|-----------------------------------------------------------------------------
|                                                                             
|Piano
|2-----2-2-3--2--0------5-----------7-----------------------------------------
|3-----3-3-3--3--3-3----3-----10-10----10--8--7--8----12-13-12-10--8p7------7-
|2-----2-2-2--2--2-2----2------7--7-7---7--7--7--7----12-12-12-12--7----7---7-
|0-----0-0-0--0--0-0-----------7--7-7---7--7--7--9----12-12-12-12--9--------7-
|------------------------------9--9-9---9-----9-10----10-10-10-10-10--------0-
|-----------------------2-----------------------------------------------------
                                                                              
 __________________  ________________
[Play first time    [Play second time
|------------------|----------------------------------------------------------
|------------------|----------------------------------------------------------
|9----9--11b--r11p9|-11---9--9-----------------------------------------------
|------------------|----------------------------------------------------------
|------------------|----------------------------------------------------------
|------------------|----------------------------------------------------------
|                                                                            
|
|------------------|----------------------------------------------------------
|5----5------------|-7----5--5------------------------------------------------
|6----6------------|-7----6--6------------------------------------------------
|7----7---5---4---2|-7----7--7------------------------------------------------
|0----0------------|-0----0--0------------------------------------------------
|---------3---2---0|----------------------------------------------------------
                                                                              
Play this figure for Piano three times under solo.
-------------------3----------------------------------------------------------
-3---3-------3---4---------------------------3--------------------------------
---5-----5---------------2-------2-------2-3----------------------------------
-----------------------------5-------5----------------------------------------
-3----------------------------------------------------------------------------
-------------------------3----------------------------------------------------
                                                                              
Solo guitar
|--------8-10-11p10p8h10p8----------------------------------------------------
|11b13---------------------11p8h10h11p10p8h10p8----8--------------------------
|-----------------------------------------------10---10p8p7h8h10p8p7h8p7------
|------------------------------------------------------------------------10---
|-----------------------------------------------------------------------------
|-----------------------------------------------------------------------------
|                                                                             
|
|-----------------------------------------------------------------------------
|-----------------------------------------------------15brp13-15brp13---------
|7--------------------7-8^--10-10b12r10---p8h10p8p7/--------------------------
|--8h10p8p7h8p7---------------------------------------------------------------
|---------------10------------------------------------------------------------
|-----------------------------------------------------------------------------
|                                                                             
|
|----10-11-13-13b15-13b15r13p11h13p11p10--------------------------------------
|--x----------------------------------------11p108---------------------------
[ Tab from: http://www.guitartabs.cc/tabs/d/dalby_ashley/temptation_revelation_tab.html ]
|x----------------------------------------------------10b12r10p8h10p8p7-------
|-----------------------------------------------------------------------------
|-----------------------------------------------------------------------------
|-----------------------------------------------------------------------------
|                                                                             
|
|-----------------------------------------------------------------------------
|-----------------------------------------------------------------------------
|-----------------------------------------------------------------------------
|----------------------------------8-------10h12h13p12p10---------------------
|-----8h10h11p10p8------8h10h11p10---10/12----------------13p10h12------------
|8h10--------------8h10-------------------------------------------------------
|                                                                             
|
|-----------------------------------------------------------------------------
|------------------------------13h15h16p15p13h15p13-13h15p13----13------------
|------------12h14h15-12h14h15-------------------------------15----15b17r15---
|10h12h13/15------------------------------------------------------------------
|-----------------------------------------------------------------------------
|-----------------------------------------------------------------------------
|                                                                             
|
|-----------------------------------------------------------------------------
|-----------------------------------------------------------------------------
|12---------8p7---7------8p7--------------------------------------------------
|----------------------------8---/---10---------------------------------------
|-----------------------------------------------------------------------------
|-----------------------------------------------------------------------------
                                                                              

Low E-string is tuned down to C!
---------11-------------10-------------9-----8-8-8-|-8------------------------
----------8--------------7-------------6-----5-5-5-|-5------------------------
----------8--------------7-------------6-----5-5-5-|-5------------------------
----------8--------------7-------------6-----5-5-5-|-5------------------------
---------------------------------------------------|--------------------------
-0---0----------0---0---------0---0----------0-0-0-|-0------------------------
                                                                              

Play these two figures three times
 Guitar 
|-----------------------------------------------------------------------------
|------16-------15-------14-------13-------16-------15-------14-------13------
|---15-------14-------13-------12-------15-------14-------13-------12---------
|13-------12-------11-------10-------13-------12-------11-------10------------
|-----------------------------------------------------------------------------
|-----------------------------------------------------------------------------
|                                                                             
|Piano 
|11-------10--------9--------8-------11-------10--------9--------8------------
|-8--------7--------6--------5--------8--------7--------6--------5------------
|-8--------7--------6--------5--------8--------7--------6--------5------------
|-8--------7--------6--------5--------8--------7--------6--------5------------
|-----------------------------------------------------------------------------
|-0-------------------------------7---0---------------------------------------
                                                                              
 Guitar
|-----------------------------------------------------------------------------
|------16-------15-------18-------16-------20-------18-------16-------15------
|---15-------14-------17-------15-------19-------17-------15-------14---------
|13-------12-------15-------13-------17-------15-------13-------12-------11---
|-----------------------------------------------------------------------------
|-----------------------------------------------------------------------------
|                                                                             
|Piano
|11-------10-------13-------11-------15-------13-------11-------10--------9---
|-8--------7-------10--------8-------12-------10--------8--------7--------6---
|-8--------7-------10--------8-------12-------10--------8--------7--------6---
|-8--------7-------10--------8-------12-------10--------8--------7--------6---
|-----------------------------------------------------------------------------
|-0-----------------0-----------------0--------------------------0------------
                                                                              

|------
|---14-
|13----
|------
|------
|------
|                                                                             
|
|------
|------
|------
|------
|------
|7-----
                                                                              
Play this solo till end
|-----------------------------------------------------------------------------
|t16p11p8-t15p10p7-t14p9p6-t13p8p5-t16p11p8-t15p10p7-t14p9p6-t13p8p5-t16p11p8-
|-----------------------------------------------------------------------------
|-----------------------------------------------------------------------------
|-----------------------------------------------------------------------------
|-----------------------------------------------------------------------------
|                                                                             
|
|-----------------------------------------------------------------------------

|t15p10p7-t18p13p10-t16p11p8-t20p15p12-t18p13p10-t16p11p8-t15p10p7-t14p9p6----
|-----------------------------------------------------------------------------
|-----------------------------------------------------------------------------
|-----------------------------------------------------------------------------
|-----------------------------------------------------------------------------
|                                                                             
|
|-----------------------------------------------------------------------------
|t16p11p8-t15p10p7-t14p9p6-t13p8p5-t16p11p8-t15p10p7-t14p9p6-t13p8p5----------
|-----------------------------------------------------------------------------
|-----------------------------------------------------------------------------
|-----------------------------------------------------------------------------
|-----------------------------------------------------------------------------
|                                                                             
|
|-----------------------------------------------------------------------------
|t16p11p8-t15p10p7b-t18p13p10-t16p11p8-t20p15p12-t18p13p10-t21p16p13----------
|-----------------------------------------------------------------------------
|-----------------------------------------------------------------------------
|-----------------------------------------------------------------------------
|-----------------------------------------------------------------------------
                                                                             
 The outro.
|-----------------------------------------------------------------------------
|t20p15p12--------------------------------------------------------------------
|----------15-----------------------------------------------------------------
|-----------------------------------------------------------------------------
|-----------------------------------------------------------------------------
|-----------------------------------------------------------------------------
|                                                                             
|                              Harm. /w trem bar
|-----------------------------------------------------------------------------
|------20-------18---------------------0--------------------------------------
|---19-------17----13---12-----4^------0--------------------------------------
|17-------15---------------------------0--------------------------------------
|-----------------------------------------------------------------------------
|-----------------------------------------------------------------------------
|                                                                             
|
|15-------13-------16---15---18-----------------------------------------------
|12-------10-------13---12---15-----------------------------------------------
|12-------10-------13---12---15---------------5-------------------------------
|12-------10-------13---12---15---------------5-------------------------------
|----------------------------15---------------3-------------------------------
|-0-----------------0---------0---------------0-------------------------------
Comments