Dalarus - Natane To Chords & Tabs

 

Natane To Chords & Tabs

Dalarus Chords & Tabs

Version: 1 Type: Tab 0 ratings
1 star 2 stars 3 stars 4 stars 5 stars
comments

Natane To Tab

   
Greek - Natane to 21


E-|-5---5-8-7-5-4-5-7---|-7---7-10-7----8-7----|
B-|---5---------------5-|------------10-----10-|
G-|---------------------|---9------------------|
D-|---------------------|----------------------|
A-|---------------------|----------------------|
E-|---------------------|----------------------|


E-|-5---5-8-7-5-4-5-7---|-7---7-10-7----8-7----|-0-0-
B-|---5---------------5-|------------10-----10-|-0-1-
G-|---------------------|---9------------------|-1-2-
D-|---------------------|----------------------|-2-2-
A-|-0-0-0-0-------------|-------------------0--|-2-0-
E-|---------0---0---0-0-|-0-0-0-0--0----0------|-0-0-

E-|-8-10-12-13-16-13-12-13-16-13-12-13-16-16---|
B-|---------------------|----------------------|
G-|---------------------|----------------------|
D-|---------------------|----------------------|
A-|---------------------|----------------------|
E-|---------------------|----------------------|

[ Tab from: http://www.guitartabs.cc/tabs/d/dalarus/natane_to_tab.html ]
E-|-8-10-12-13-16-13-12-16-13-12-10-12-13-12-10-12-|
B-|---------------------|--------------------------|
G-|---------------------|--------------------------|
D-|---------------------|--------------------------|
A-|---------------------|--------------------------|
E-|---------------------|--------------------------|


E-|-8-10-12-13-13-13-16-16-1617-17-17-18-18-18-16--|
B-|---------------------|--------------------------|
G-|---------------------|--------------------------|
D-|---------------------|--------------------------|
A-|---------------------|--------------------------|
E-|---------------------|--------------------------|


E-|-16-17-19-12-13-12-10-12-10-8-10-8-7-8-7-5-|-0-0-
B-|---------------------|---------------------|-0-1-
G-|---------------------|---------------------|-1-2-
D-|---------------------|---------------------|-2-2-
A-|---------------------|---------------------|-2-0-
E-|---------------------|---------------------|-0-0-
Comments