Dakona - Trampoline Chords & Tabs

 

Trampoline Chords & Tabs

Dakona Chords & Tabs

Version: 1 Type: Tab 0 ratings
1 star 2 stars 3 stars 4 stars 5 stars
comments

Trampoline Tab

Dakona  "Trampoline"

intro: ---------------------------------------------------e
       ---------------------------------------------------B
       -----2-1-2-------2-1-------2-1-2------2------------G
       ---2---------0-0-----2----2-------0-------0--------D
       -0----------------------0-----------4---4---4-2-4--A
       ---------------------------------------------------E
cords during verse: A G E   in that order  listen to the song
to figure out the timing

chorus: guitar plays intro 2x or plays this:
--0------2---0------
--3------3---0------
--3------2---1------
--3--4---0---2------ 4x
-----4-------2------
-----2-------0------

verse

chorus
[ Tab from: http://www.guitartabs.cc/tabs/d/dakona/trampoline_tab.html ]
bridge:--------12--------12------------12--------------
       --9-10------9-10-----10----9-10------9-10-9-----
       --------------------------------------------9---
       ----------------------------------------------11-
       ------------------------------------------------
       ------------------------------------------------

       -9-7-5-7-5-7-10-9-7-5---9-7-5-7-5-7-5-4---------
       ----------------------------------------7-5-----
       ------------------------------------------------ 
       ------------------------------------------------
       ------------------------------------------------
       ------------------------------------------------

 -9-7-5-7-5-7-10-9-7-5---9-7-5-7-10-9-5-5h7-------
--------------------------------------------------
--------------------------------------------------
--------------------------------------------------
--------------------------------------------------
--------------------------------------------------

chorus 2x

by peuser21
Comments