Dakona - Good Ive Got A Lot To Learn Chords & Tabs

 

Good Ive Got A Lot To Learn Chords & Tabs

Dakona Chords & Tabs

Version: 2 Type: Tab 0 ratings
1 star 2 stars 3 stars 4 stars 5 stars
comments

Good Ive Got A Lot To Learn Tab

Artist: Dakona
Title: Good (I've Got A Lot To Learn)
Tabber: JohnnyMac

Tuning: Standard(EADGBE)

/ - slide up
x - mute


Intro
E|--------2--------2-------------2--------2-------|
B|-----------0--2-----2-------2-----0--2-----2----|
G|-----3-----------------1/3----------------------|
D|--4---------------------------------------------|x4
A|------------------------------------------------|
E|------------------------------------------------|


Verse
E|-----------------------------------------|
B|-----------------------------------------|
G|------6-6---3--4--xx------6-6---3---4-4--|
D|--4---6-6---3--4--xx--4---6-6---3---4-4--|
A|--4---4-4---1--2--xx--4---4-4---1---2-2--|
E|--2-------------------2------------------|
[ Tab from: http://www.guitartabs.cc/tabs/d/dakona/good_ive_got_a_lot_to_learn_tab_ver_2.html ]
E|----------------------------------------|
B|----------------------------------------|
G|------6-6---3--4--xx------6-6---3---4---|
D|--4---6-6---3--4--xx--4---6-6---3---4---|
A|--4---4-4---1--2--xx--4---4-4---1---2---|
E|--2-------------------2-----------------|


Chorus
E|----------------------------------------|
B|----------------------------------------|
G|------6-6---3--4-4-------6-6---3---4-4--|
D|--4---6-6---3--4-4---4---6-6---3---4-4--|x2
A|--4---4-4---1--2-2---4---4-4---1---2-2--|
E|--2------------------2------------------|


Outro To Chorus(i guess that's what ya call it)
E|-------------------------|
B|-------------------------|
G|--------------------6----|
D|--------4--------4--6----|
A|-----6--------4-----4----|
E|--7--------6-------------|


Bridge
E|------------|   --------|
B|------------|   --------|
G|------------|   --------|
D|--6-6--4-4--|x3 --3--4--|x3
A|--6-6--4-4--|   --3--4--|
E|--4-4--2-2--|   --1--2--|

Intro again
Bass fill
Chorus again


First Tab.. Take er easy on me. Haha
Comments