Dai Penny - Ni Yao De Ai Chords & Tabs

 

Ni Yao De Ai Chords & Tabs

Dai Penny Chords & Tabs

Version: 1 Type: Tab 0 ratings
1 star 2 stars 3 stars 4 stars 5 stars
comments

Ni Yao De Ai Tab

   
Ni yao de ai:
 
These are the tabs of the first and second verse.  Hope you figure out the chorus from the chord progression F Am Bb G F Am Bb G Bbm.
 
 
If you have corrections or would have tabbed the succeeding parts, just e-mail me at dreadedexx@yahoo.com 
 
 
 
 
 
I
    E     Am       Dm      Cm    Bb   
----0------0-------1------3-----1-------------------
----0----1---1-----3----4---4---3-------------------
----1-----2-2-2----2-----5-5-5--3-------------------
----2---2----------0---5--------3-------------------
----2--0-----------0--3---------1-------------------
----0--------------0------------1-------------------
     Am Dm       G                    C
-----------1-------1--------------------------------
----------3------0---0---------1-1/3--1-------------
------2--2--------0-0-0-------0---------------------
-----2--0-------0--------------------------------2--
----0------------------------3---3/5--3---3---3/5---
---------------3------------------------------------
 
 
II
 
    E     Am       Dm      Cm       
--------0--------1--------1--------3--------------
------1---1----1---1----3---3----4---4------------
-------2-2-2----2-2-2--2-2-2-2----5-5-5-----------
-----2--------2-------0---------5-----------------
-------------0-----------------3------------------
----0---------------------------------------------
 
        B       Am   Dm G              C
--------2----------1------3-----------------------
------4---4-------3-----0---0----1----1/3----1----
-------4-4-4---2-2-------0-0-0--------------------
-----4--------2-0------0--------2-----------------
----2--------0-----------------3------3/5----3----
----------------------3---------------------------
 

 

[ Tab from: http://www.guitartabs.cc/tabs/d/dai_penny/ni_yao_de_ai_tab.html ]
Comments