Dagoba - Die Tomorrow What If You Should Chords & Tabs

 

Dagoba Chords & Tabs

Version: 1 Type: Tab 0 ratings
1 star 2 stars 3 stars 4 stars 5 stars
comments

Die Tomorrow What If You Should Tab

   
Dagoba
Die Tomorrow (...What if You Should)
What Hell is About
Drop-B
                              3x                        1x
Db|---|---------------------------|-------------------------|
Ad|---|---------------------------|-------------------------|
E |---|---------------------1-----|---------------------1*--|
B |-0-|-0-1-0--0-3-0--0-1-0---0-0-|-0-1-0--0-3-0--0-1-0-----|
Gb|-0-|---------------------------|-------------------------|
B |-0-|---------------------------|-------------------------|

Db|---------------------------------------------------------------|
Ad|---------------------------------------------------------------|
E |---------------------------------------------------------------|
B |-----------------------3h4p3-0h3---------------------3h4p3-----|
Gb|-----------------------------------------------------------6p5-|
B |--0-1-0--0-3-0--0-1-0------------0-1-0--0-3-0--0-1-0-----------|

Db|-----------------------|
Ad|-----------------------|
E |-----------------------|
B |-2-2---2-2---2-2---5-5-|
Gb|-2-2---2-2---2-2---5-5-|
B |-2-2---2-2---2-2---5-5-|

Db|---------------------------------------------------------------------|
Ad|---------------------------------------------------------------------|
E |---------------------------------------------------------------------|
B |-----------------------------------0h3-----------------------3-4-3-0-|
Gb|-7h8------------7p4------------4h7--------------5p4----------3-4-3-0-|
B |-----0000000000-----0000000000---------00000000-----00000000-3-4-3-0-|
        ----------     ----------         --------     --------

Db|----------------------------------------------------------------------|
Ad|----------------------------------------------------------------------|
E |----------------------------------------------------------------------|
B |--------------------------------------------------------------3-4-3-0-|
Gb|-7h8------------7h8------------10p7-7h8----------7h8----------3-4-3-0-|
B |-----0000000000-----0000000000----------00000000-----00000000-3-4-3-0-|
        ----------     ----------         --------     --------

Db|---|---------------------------|-------------------------|
Ad|---|---------------------------|-------------------------|
E |---|---------------------1-----|---------------------1*--|
B |-0-|-0-1-0--0-3-0--0-1-0---0-0-|-0-1-0--0-3-0--0-1-0-----|
Gb|-0-|---------------------------|-------------------------|
B |-0-|---------------------------|-------------------------|

Db|---------------------------------------------------------------|
Ad|---------------------------------------------------------------|
E |---------------------------------------------------------------|
B |-----------------------3h4p3-0h3---------------------3h4p3-----|
Gb|-----------------------------------------------------------6p5-|
B |--0-1-0--0-3-0--0-1-0------------0-1-0--0-3-0--0-1-0-----------|

Db|-----------------------|
Ad|-----------------------|
E |-----------------------|
B |-2-2---2-2---2-2---5-5-|
Gb|-2-2---2-2---2-2---5-5-|
B |-2-2---2-2---2-2---5-5-|

Db|---------------------------------------------------------------------|
Ad|---------------------------------------------------------------------|
E |---------------------------------------------------------------------|
B |-----------------------------------0h3-----------------------3-4-3-0-|
Gb|-7h8------------7p4------------4h7--------------5p4----------3-4-3-0-|
B |-----0000000000-----0000000000---------00000000-----00000000-3-4-3-0-|
        ----------     ----------         --------     --------

Db|----------------------------------------------------------------------|
Ad|----------------------------------------------------------------------|
E |----------------------------------------------------------------------|
B |--------------------------------------------------------------3-4-3-0-|
Gb|-7h8------------7h8------------10p7-7h8----------7h8----------3-4-3-0-|
B |-----0000000000-----0000000000----------00000000-----00000000-3-4-3-0-|
        ----------     ----------         --------     --------
[ Tab from: http://www.guitartabs.cc/tabs/d/dagoba/die_tomorrow_what_if_you_should_tab.html ]
Db|---|---------------------------|-------------------------|
Ad|---|---------------------------|-------------------------|
E |---|---------------------1-----|---------------------1*--|
B |-0-|-0-1-0--0-3-0--0-1-0---0-0-|-0-1-0--0-3-0--0-1-0-----|
Gb|-0-|---------------------------|-------------------------|
B |-0-|---------------------------|-------------------------|

Db|---------------------------------------------------------------|
Ad|---------------------------------------------------------------|
E |---------------------------------------------------------------|
B |-----------------------3h4p3-0h3---------------------3h4p3-----|
Gb|-----------------------------------------------------------6p5-|
B |--0-1-0--0-3-0--0-1-0------------0-1-0--0-3-0--0-1-0-----------|

Db|-----------------------|
Ad|-----------------------|
E |-----------------------|
B |-2-2---2-2---2-2---5-5-|
Gb|-2-2---2-2---2-2---5-5-|
B |-2-2---2-2---2-2---5-5-|

Db|----------------------------------|
Ad|----------------------------------|
E |----------------------------------|
B |-0-3/4-0-4/3-0-6/7-0-7/6----------|
Gb|-0-3/4-0-4/3-0-4/5-0-5/4----------|
B |-0-3/4-0-4/3-0-----0-----00000000-|
    -     -     -     -     --------

Db|--------------------------------------|
Ad|--------------------------------------|
E |--------------------------------------|
B |-0-3-4--0-4-3--0-6-7--0-7-6-----------|
Gb|-0-3-4--0-4-3--0-4-5--0-5-4-----------|
B |-0-3-4--0-4-3--0------0------00000000-|
    - - -  - - -  - - -  - - -  --------

Db|--------------------------------|
Ad|--------------------------------|
E |--------------------------------|
B |--------------------------------|
Gb|--------------------------------|
B |-33-333-33-3333-33-333-33333333-|
    -- --- -- ---- -- --- --------

Db|---------------------------------------------------------------------|
Ad|---------------------------------------------------------------------|
E |---------------------------------------------------------------------|
B |-----------------------------------0h3-----------------------3-4-3-0-|
Gb|-7h8------------7p4------------4h7--------------5p4----------3-4-3-0-|
B |-----0000000000-----0000000000---------00000000-----00000000-3-4-3-0-|
        ----------     ----------         --------     --------

Db|----------------------------------------------------------------------|
Ad|----------------------------------------------------------------------|
E |----------------------------------------------------------------------|
B |--------------------------------------------------------------3-4-3-0-|
Gb|-7h8------------7h8------------10p7-7h8----------7h8----------3-4-3-0-|
B |-----0000000000-----0000000000----------00000000-----00000000-3-4-3-0-|
        ----------     ----------         --------     --------


Db|---|---------------------------|-------------------------|
Ad|---|---------------------------|-------------------------|
E |---|---------------------1-----|---------------------1*--|
B |-0-|-0-1-0--0-3-0--0-1-0---0-0-|-0-1-0--0-3-0--0-1-0-----|
Gb|-0-|---------------------------|-------------------------|
B |-0-|---------------------------|-------------------------|

Db|---------------------------------------------------------------|
Ad|---------------------------------------------------------------|
E |---------------------------------------------------------------|
B |-----------------------3h4p3-0h3---------------------3h4p3-----|
Gb|-----------------------------------------------------------6p5-|
B |--0-1-0--0-3-0--0-1-0------------0-1-0--0-3-0--0-1-0-----------|

Db|-----------------------|
Ad|-----------------------|
E |-----------------------|
B |-2-2---2-2---2-2---5-5-|
Gb|-2-2---2-2---2-2---5-5-|
B |-2-2---2-2---2-2---5-5-|

Db|--------------------------------|
Ad|--------------------------------|
E |--------------------------------|
B |--------------------------------|
Gb|--------------------------------|
B |-33-333-33-3333-33-333-33333333-|
    -- --- -- ---- -- --- --------

Db|--------------------------------|
Ad|--------------------------------|
E |--------------------------------|
B |--------------------------------|
Gb|--------------------------------|
B |-00-000-00-0000-00-000-00000000-|

(key board lead)

Db|--------------------------|
Ad|--------------------------|
E |--------------------------|
B |-9-10---9-10---9-7---9-10-|
Gb|--------------------------|
B |--------------------------|

Db|---------|
Ad|---------|
E |---------|
B |-----6-7-|
Gb|-5-8-----|
B |---------|

Db|-20---19-20-19--------19---19-20-|
Ad|---------------17-18-------------|
E |---------------------------------|
B |---------------------------------|
Gb|---------------------------------|
B |---------------------------------|
Comments