Dagoba - Another Day Chords & Tabs

 

Another Day Chords & Tabs

Dagoba Chords & Tabs

Version: 1 Type: Tab 0 ratings
1 star 2 stars 3 stars 4 stars 5 stars
comments

Another Day Tab

Artist: Dagoba
Song: Another Day
Album: Dagoba
Tabbed by Little Jeff
www.dagobaonline.com

Verse 1:

|--------------------------------------------------------|
|--------------------------------------------------------|
|--------------------------------------------------------|
|--------------------------------------------------------|
|--------------------------------------------------------|
|-0-0---0-0--0-0-0---0-0--0---0-0---0-0--0-0-0---0-0--0--|

|--------------------------------------------------------|
|--------------------------------------------------------|
|--------------------------------------------------------|
|--------------------------------------------------------|
|--------------------------------------------------------|
|-8-8---8-8--8-8-8---8-8--8---5-5---5-5--5-5-5---5-5--5--|

|----------------------------------------------------------------------|
|----------------------------------------------------------------------|
|----------------------------------------------------------------------|
|------------------------------------------------------------10-----7--|
|----------------------------------------------------------8------5----|
|-0-0---0-0--0-0-0---0-0--0---0-0---0-0--0-0-0---0-0--0--8------5------|

Chorus:

|------------------------------------------------------|
|------------------------------------------------------|
|------------------------------------------------------|
|-0--0--0-0--1--1--1--1--1--0--0--0-0--1--1------------|
|-0--0--0-0--1--1--1--1--1--0--0--0-0--1--1--3--3------|
|-0--0--0-0--1--1--1--1--1--0--0--0-0--1--1--1--1--3*--|

|-----------------------------------------------------|
|-----------------------------------------------------|
|-----------------------------------------------------|
|-0--0--0-0--1--1--1--1--1--0--0--0-0--1--1--1--1--3--|
|-0--0--0-0--1--1--1--1--1--0--0--0-0--1--1--1--1--3--|
|-0--0--0-0--1--1--1--1--1--0--0--0-0--1--1--1--1--3--|

Verse 2:
[ Tab from: http://www.guitartabs.cc/tabs/d/dagoba/another_day_tab.html ]
|--------------------------------------------------------|
|--------------------------------------------------------|
|--------------------------------------------------------|
|--------------------------------------------------------|
|--------------------------------------------------------|
|-0-0---0-0--0-0-0---0-0--0---0-0---0-0--0-0-0---0-0--0--|

Chorus 2

|------------------------------------------------------|
|------------------------------------------------------|
|------------------------------------------------------|
|-0--0--0-0--1--1--1--1--1--0--0--0-0--1--1------------|
|-0--0--0-0--1--1--1--1--1--0--0--0-0--1--1--3--3------|
|-0--0--0-0--1--1--1--1--1--0--0--0-0--1--1--1--1--3*--|

|-----------------------------------------------------|
|-----------------------------------------------------|
|-----------------------------------------------------|
|-0--0--0-0--1--1--1--1--1--0--0--0-0--1--1--1--1--3--|
|-0--0--0-0--1--1--1--1--1--0--0--0-0--1--1--1--1--3--|
|-0--0--0-0--1--1--1--1--1--0--0--0-0--1--1--1--1--3--|

Bridge

|-------------------------------------------------------|
|-------------------------------------------------------|
|-------------------------------------------------------|
|-------------------------------------------------------|
|-0-0--0-0-0--------------------------------------------|
|-0-0--0-0-0--0-0---0-0--0-0--0-0--0-0-0-0--0-0--0-0-0--|

|-----------------------------------------------------------------------|
|-----------------------------------------------------------------------|
|-----------------------------------------------------------------------|
|-10-10--10-10-10-10-10-9-----------------------------------------------|
|--8--8---8--8--8--8--8-5--0-0---0-0--0-0--0--0--0--0--0-0--0-0--0-0-0--|
|--8--8---8--8--8--8--8-5--0-0---0-0--0-0--0--0--0--0--0-0--0-0--0-0-0--|

final

|-------------------|
|-------------------|
|-------------------|
|-----10---------7--|
|--8-----------5----|
|-8-------5---------|

|-----------------------------------------|
|-----------------------------------------|
|-----------------------------------------|
|-----------------------------------------|
|-0-0--0-0--0-0--0-0--0-0--0-0--0-0--0-0--|
|-0-0--0-0--0-0--0-0--0-0--0-0--0-0--0-0--|

That's it have a good fun! Dagoba is a pretty good band not really difficult for the
guitar and this is a french band!!!
Comments