Daft Punk - Robot Rock Chords & Tabs

 

Robot Rock Chords & Tabs

Daft Punk Chords & Tabs

Version: 3 Type: Tab 0 ratings
1 star 2 stars 3 stars 4 stars 5 stars
comments

Robot Rock Tab

----------------------------------------------------------------------------
			     Robot Rock - Daft Punk
----------------------------------------------------------------------------
Tabbed by: Felipe Leiva Villanueva
Email: VanHalen90@hotmail.com

Oh, man! I can't believed that anyone could just put this riff!, it was so EASY and that
robot just repeated that in the whole song!. Well in this case I play it from the 10th
fret on the sixth string with their fifth because it gives a bass tone like in the song,
because if I play it from the 5th string in the third space with their fifth it would
sound naked.

REMEMBER: Train your ear as much as you can, and tab the song correctly!


Tuning: Standard (EADGBE)
[ Tab from: http://www.guitartabs.cc/tabs/d/daft_punk/robot_rock_tab_ver_3.html ]
    x 7 times and then...   it does this until it comes again...
e|----------------|---------------------------------------------------------|
B|----------------|---------------------------------------------------------|
G|----------------|---------------------------------------------------------|
D|-----12---------|-------12-10---------------------------------------------|
A|-----12---------|-------12-10---------------------------------------------|
E|-----10---------|-------10--8---------------------------------------------|


This part I couldn't believed that anyone did it but here it comes!... and you have to
repeat it 8 times Then, this 4 times
e|------------------------------------------------------|-------------------|
B|------------------------------------------------------|-------------------|
G|---------9--------------------------9-----------------|-------------------|
D|--12-------10-7--------12-12--12------10-7------------|-------12-10-------|
A|--12------------8-7----12-12--12-----------8-7-7------|-------12-10-------|
E|--10-------------------10-10--10-----------------8-8--|-------10--8-------|

When that robot I don't know if it is Guy Manuel or Thomas Banglater says
"ROCK..ROBOT ROCK"..the guitar does this... and then the whole song again.

e|--------------------------------------------------------------------------|
B|--------------------------------------------------------------------------|
G|--------------------------------------------------------------------------|
D|--------------------------------------------------------------------------|
A|----5-5-3-----------------------------------------------------------------|
E|-----------5-1------------------------------------------------------------|
Comments