Daft Punk - One More Time Chords & Tabs

 

One More Time Chords & Tabs

Daft Punk Chords & Tabs

Version: 3 Type: Bass Tab 0 ratings
1 star 2 stars 3 stars 4 stars 5 stars
comments

One More Time Bass Tab

   
-------------------------------------------------------------------------------
			     One More Time - Daft Punk
-------------------------------------------------------------------------------

Tabbed By : Sam Beach
e-mail: the_reprieve@hotmail.com
www.geocities.com/thereprieve1

Tuning: standard

intro and basic riff. you'll play this twice (two bars)
G|---------------------------------------------------------------------------|
D|---------------------------------------------------------------------------|
A|---------------3-----------------------------------------------------------|
E|-3~3-3~-3-3~-3---2---------------------------------------------------------|
[ Tab from: http://www.guitartabs.cc/tabs/d/daft_punk/one_more_time_btab_ver_3.html ]
then from the second time transition lower like
G|---------------------------------------------------------------------------|
D|---------------------------------------------------------------------------|
A|---------------3-----------------------------------------------------------|
E|-3~3-3~-3-3~-3---2--0-0-0-0-0-0--------------------------------------------|

thats really the whole bass part for the song. two bars, then one, two, then one.
dont play during the vocal solo, but even if you do it will still match up. 

| /  slide up
| \  slide down
| h  hammer-on
| p  pull-off
| ~  vibrato
| +  harmonic
| x  Mute note
===============================================================================
Comments