Daft Punk - Around The World Chords & Tabs

 

Around The World Chords & Tabs

Daft Punk Chords & Tabs

Version: 7 Type: Bass Tab 0 ratings
1 star 2 stars 3 stars 4 stars 5 stars
comments

Around The World Bass Tab

Daft Punk
Around The World

Intro:
G|----------------------------|
D|--4-2-0---------------------|
A|----------3-2-0-------------|
E|------------------3-3h5-----|

Verse:
G|------------------------------------------------------------------|
D|-------------------------------4-2-0------------------------------|
A|-0-0-0-0-2-3-3-3-3-5-7-7-7-7----------3-2-0-----------------------|
E|---------------------------------------------3-3------------------|h5ó
[ Tab from: http://www.guitartabs.cc/tabs/d/daft_punk/around_the_world_btab_ver_7.html ]
Pre-Chorus: (same as verse, but itís only bass, drums and vocals playing/singing)

Chorus:
G|----7-9--7-(7)-7-(7)-7-9-----------------------------------|
D|---------------------------------------5h7~2---------------|
A|-7--------------------------3-3-22-2-----------------------|
E|-----------------------------------------------------------|

G|----7-9--7-(7)-7-(7)-7-9-----------------------------------|
D|---------------------------------------4~5~2---------------|
A|-7---------------------------3-3-2-2-----------------------|
E|-----------------------------------------------------------|
Comments