Daft Punk - Around The World Chords & Tabs

 

Around The World Chords & Tabs

Daft Punk Chords & Tabs

Version: 6 Type: Bass Tab 0 ratings
1 star 2 stars 3 stars 4 stars 5 stars
comments

Around The World Bass Tab

   
Title: Around The World
Artist: Daft Punk
Instrument: Bass
Tabbed by: Keith D Pearson (keith.pearson@umit.maine.edu)
Previously tabbed by: Jonathan Martinez (emokid951@yahoo.com)
Tuning: Standard (E A D G)
To see my other tabs, go to www.umit.maine.edu/~keith.pearson/basstabs.mht

/ = Slide down
* = short note

A very cool song, and easy to play once you get the fingering down on riff 3.
I will credit Jonathan Martinez because it was his tab that I originally looked at to
learn the song, and though he got most of the notes correct, some of the frets he chose
for riff 3 made it near impossible to play.

Riff 1

G  :----------------|----------------|----------------|----------------|
D  :4*2*0*----------|4*2*0*----------|4*2*0*----------|4*2*0*----------|
A  :------3*2*0*----|------3*2*0*----|------3*2*0*----|------3*2*0*----|
E  :------------3--0|------------3--0|------------3--0|------------3--0|
B  :----------------|----------------|----------------|----------------|
    1 A 2 A 3 A 4 A  1 A 2 A 3 A 4 A  1 A 2 A 3 A 4 A  1 A 2 A 3 A 4 A  

Riff 2
[ Tab from: http://www.guitartabs.cc/tabs/d/daft_punk/around_the_world_btab_ver_6.html ]
G  :--------------- -|--------------- -|----------------|----------------|
D  :--------------- -|--------------0 2|*---2*--2*--2*--|4*2*0*----------|
A  :0*--0*--0*--0*2 3|*---3*--3*--3*- -|----------------|------3*2*0*----|
E  :--------------- -|--------------- -|----------------|------------3--0|
B  :--------------- -|--------------- -|----------------|----------------|
    1 A 2 A 3 A 4 A   1 A 2 A 3 A 4 A   1 A 2 A 3 A 4 A  1 A 2 A 3 A 4 A  

Riff 3

I'll include the fingerings I find are easiest.

I = Index
M = Middle
R = Ring
P = Pinky
T = Thumb

    R I R  I R I I I R I R  IR I M M P I/I  R I R I R I R I I R
G  :--7-9*-7-9*7*7 7 9|--- --- --- --- ----|--7-9*7-9*7 9*7 7 9|
D  :-------------- - -|--10--10--- --107/5-|----------- --- - -|
A  :7------------- - -|--- --- --- --- ----|7---------- --- - -|
E  :-------------- - -|8*- -8- 8*7 7*- ----|----------- --- - -|
B  :-------------- - -|--- --- --- --- ----|----------- --- - -|
    1 A 2 A 3 A 4  A   1 A  2  A 3  A  4 A  1 A 2 A 3 A  4  A   

    I R  IR I M M I/I
G  :--- --- ----------|
D  :--10--10------7/5-|
A  :--- --- ----------|
E  :8*- -8- 8*7*7*----|
B  :--- --- ----------|
    1 A  2  A 3 A 4 A
Comments