Daft Punk - Around The World Chords & Tabs

 

Around The World Chords & Tabs

Daft Punk Chords & Tabs

Version: 5 Type: Bass Tab 0 ratings
1 star 2 stars 3 stars 4 stars 5 stars
comments

Around The World Bass Tab

   
Artist: Daft Punk
Song  : Around The World
Album : Home Work
Bassit: It's a computer
Tuning: GDAE (standerd)
Timing: 4/4
Tabbed: Simon Skipper

This song is pretty funky to play and I don't think its that hard.

The key to this song is to get tight with the drums!


h  -  Hammer-on
/  -  Slide (up or down)
x  -  Dead note/ghost note

Intro

G|---------------------------|
D|--2-4--2-------------------|
A|----------5--3--2----------|
E|-------------------5--3----|


Verse (00:31)
[ Tab from: http://www.guitartabs.cc/tabs/d/daft_punk/around_the_world_btab_ver_5.html ]
G|-------------------------------------------------------------------|
D|------------------------------2--2--2--2--2-4--2-------------------|
A|--------------2-3--3--3--3--5---------------------5--3--2----------|
E|--5--5--5--5-----------------------------------------------5--3----|

Chorus Bit (1:58)

This is really fun to play                     (below: thats all in 1 slide)

G|----7-9--7-x-7-x-7h9--------------------------------|
D|-------------------------10-----10---10---9--7/9/5--|
A|--7-------------------------------------------------|
E|----------------------8------8-----8----7-----------|



THE END!

any probs?
E-mail 
play_field@hotmail.com
Comments