Daft Punk - Around The World Chords & Tabs

 

Around The World Chords & Tabs

Daft Punk Chords & Tabs

Version: 3 Type: Bass Tab 0 ratings
1 star 2 stars 3 stars 4 stars 5 stars
comments

Around The World Bass Tab

G-----------------------------------------------------
D-----------------------------------------------------
A-2-2-2-1-2-3-2-2-2-1-3-4-5-7-------------------------
E-----------------------------------------------------

VERSE 2
[ Tab from: http://www.guitartabs.cc/tabs/d/daft_punk/around_the_world_btab_ver_3.html ]
G---------1-------------------------------------------
D-------1---------------------------------------------
A0-0-0-0-----------------1----------------------------
E----------0-0-0-0-0-0-0---0-0-0-8HOLD

ENDING
G-2-2-2-2-2-2-2-2-2-2-------------2-2-2-2-2-2-2-11-
D---------------------2-2-2-2-2-2------------------
A--------------------------------------------------
E--------------------------------------------------5 HOLD FOR 4 BEATS

TYBALT AND THE BUTT PIRATES ARE STILL IN THE PROCESS OF FORMING
THIS IS THEIR FIRST SONG. (NO GUTAR TABS AVABILE) YET
Comments