Daft Punk - Aerodynamic Chords & Tabs

 

Aerodynamic Chords & Tabs

Daft Punk Chords & Tabs

Version: 2 Type: Tab 2 ratings
1 star 2 stars 3 stars 4 stars 5 stars
comments

Aerodynamic Tab

Aerodynamic
Tab by kamakazee (Adam Robertshaw)

This tab includes both guitar parts and also bass guitar tab.
The bass guitar tab was done on a normal guitar so will be
slightly wrong, but all you have to do is find out what string
the tab is done on and how far up it. So in otherwords the tab is 
right, just not in the right place! This tab does not include the 
outro as this is done on synthesizer and i cannot be arsed to tab 
it now :P

Bass guitar only tabbed for bottom e string on normal guitar.

Guitar 2 is solo guitar.


Before Solo-

Bass part-

Play below part once through then on last 3 solo begins.
Each line is played to 1 line of Guitar 1. After 2nd play through
of 1 line of Guitar 1 bass on bass guitar is turned up.

E:----8-6-8----3-4---1----3-8-6-8----3-4-4-4----|

E:--3-8-6-8----3-4---1----3-8-6-8----3-4-4-4----|

E:--3-8-6-8----3-4-3-1----3-8-6-8----3-4-3-4----|

E:--3-8-6-8----3-4-3-1----3-8-6-8----3-4-3-4----|

E:--3-8-6-8----3-4-3-1----3-8-6-8----3-4-3-4----|

E:--3-8-6-8----3-4-3-1----3-8-6-8----3-4-3-4--3-|


Guitar 1-

Play 6 times. 
At end of 6th play solo begins.

e:-----------------------------------------------------------------------------|
B:-----------------------------------------------------------------------------|
G:--7--------7--------7--------7-------7--------7--------7---------7-----------|
D:----9--7h9---9--------9--7h9---9-------9--7h9---9--------7---7h9---9---------|
A:-----------------------------------------------------------------------------|
E:-----------------------------------------------------------------------------|


Solo-
[ Tab from: http://www.guitartabs.cc/tabs/d/daft_punk/aerodynamic_tab_ver_2.html ]
Best played using Index and middle finger in a cycling motion (much quicker).
After 2nd time playing through other guitars start again.
Optional play to make it sound better and more like real version is to play
the solo part fret higher on both strings on 2nd and 5th time through the solo.

Play 5 times.

Guitar 2-

e:--10----7--------10----7-------10----7-------10----7-------|
B:-----7----7--------7----7--------7----7--------7----7------|
G:-----------------------------------------------------------|
D:-----------------------------------------------------------|
A:-----------------------------------------------------------|
E:-----------------------------------------------------------|

e:--10----7--------10----7-------10----7-------10----7-------|
B:-----8----8--------8----8--------8----8--------8----8------|
G:-----------------------------------------------------------|
D:-----------------------------------------------------------|
A:-----------------------------------------------------------|
E:-----------------------------------------------------------|

e:--15----12------15----12------15----12------15-----12------|
B:----12----12-------12---12-------12---12-------12----12----|
G:-----------------------------------------------------------|
D:-----------------------------------------------------------|
A:-----------------------------------------------------------|
E:-----------------------------------------------------------|

e:--12----9-------12----9-------12----9------12-----9--------|
B:----10---10-------10---10-------10---10-------10----10-----|
G:-----------------------------------------------------------|
D:-----------------------------------------------------------|
A:-----------------------------------------------------------|
E:-----------------------------------------------------------|


After Solo-

After solo part above is played 2 times all guitars enter again.
Guitar 1 plays same tab 6 times again. Bass guitar plays same tab.
On 2nd play through of 1 line of guitar 1 bass is turned up on bass
guitar.



Comments