Daft Punk - Aerodynamic Chords & Tabs

 

Aerodynamic Chords & Tabs

Daft Punk Chords & Tabs

Version: 10 Type: Tab 0 ratings
1 star 2 stars 3 stars 4 stars 5 stars
comments

Aerodynamic Tab

-------------------------------------------------------------------------------
			   AERODYNAMIC - DAFT PUNK
-------------------------------------------------------------------------------
Tabbed by: Bob Sacamano
Email: Sacamano_79@yahoo.com

I screwed up the original tab of this! This is to correct it, this is a perfect one 
i put 2 things in the wrong spot last time, but this should cover it.

e|------------|------------|------------|-------------|
B|------------|------------|------------|-------------|
G|------------|------------|--12-4-9-4--|-------------|
D|--12-4-9-4--|--12-6-9-6--|------------|--14-7-11-7--|
A|------------|------------|------------|-------------|
E|------------|------------|------------|-------------|
       4x           4x           4x           4x
[ Tab from: http://www.guitartabs.cc/tabs/d/daft_punk/aerodynamic_tab_ver_10.html ]
e|-------------|-------------|--15-9-12-9--|--12-5-9-5--|
B|--15-7-12-7--|--15-9-12-9--|-------------|------------|
G|-------------|-------------|-------------|------------|
D|-------------|-------------|-------------|------------|
A|-------------|-------------|-------------|------------|
E|-------------|-------------|-------------|------------|
       4x           4x           4x           4x

e|-------------|-------------|--15-7-12-7--|--12-5-9-5--|
B|--15-7-12-7--|--15-9-12-9--|-------------|------------|
G|-------------|-------------|-------------|------------|
D|-------------|-------------|-------------|------------|
A|-------------|-------------|-------------|------------|
E|-------------|-------------|-------------|------------|
       4x           4x           4x           4x

e|-------------|------------|--15-7-12-7--|--12-5-9-5--|
B|--15-7-12-7--|--12-5-9-5--|-------------|------------|
G|-------------|------------|-------------|------------|
D|-------------|------------|-------------|------------|
A|-------------|------------|-------------|------------|
E|-------------|------------|-------------|------------|
       4x           4x           4x           4x
Comments