Daft Punk - Aerodynamic Chords & Tabs

 

Aerodynamic Chords & Tabs

Daft Punk Chords & Tabs

Version: 1 Type: Tab 0 ratings
1 star 2 stars 3 stars 4 stars 5 stars
comments

Aerodynamic Tab




play with heavy distortion:

E|------------------|------------------|-----------------|
B|-3-0---3-0---3-0--|-3-0---3-0---3-0--|-3-0---3-0--3-0--|
G|-----2-----2-----2|-----1-----1-----1|-----0-----0----0|
D|------------------|------------------|-----------------|
A|------------------|------------------|-----------------|
E|------------------|------------------|-----------------|


[ Tab from: http://www.guitartabs.cc/tabs/d/daft_punk/aerodynamic_tab.html ]
E|------------------|-----------------|----------------|
B|-15-12----15-12---|-15-12----15-12--|---15-12--------|
G|-------14-------14|-------14--------|14-------13-----|
D|------------------|-----------------|----------------|
A|------------------|-----------------|----------------|
E|------------------|-----------------|----------------|

E|------------------|-----------------|----------------|
B|-15-12----15-12---|-15-12----15-12--|----------------|
G|-------13-------12|-------12--------|12--------------|
D|------------------|-----------------|----------------|
A|------------------|-----------------|----------------|
E|------------------|-----------------|----------------|

Comments