Daddykake - Drive Faster Chords & Tabs

 

Drive Faster Chords & Tabs

Daddykake Chords & Tabs

Version: 1 Type: Tab 0 ratings
1 star 2 stars 3 stars 4 stars 5 stars
comments

Drive Faster Tab

   
We're just a little band with a few good songs,
so we decided to put some on this site.  Here's one of them.

"Drive Faster"
by Daddykake.
 
submitted by Andrew Lorton (guitarist)

guitar in standard tuning (EADGBE)

intro and verses:
play these chords for backup:
   E       G#5    A5type2    Bm
e:-------------------------------
b:-------------------------------
g:-------------------------------
d:-------------------------------
a:-------------------------------
E:0-0-0-0-4-4-4-4-5-5-5-5-7-7-7-7
(palm mute all)
[ Tab from: http://www.guitartabs.cc/tabs/d/daddykake/drive_faster_tab.html ]
chorus:
e:----------------000-
b:----------------000-
g:7-7-7-7---------111-
d:7-7-7-7-7-7-7-7-222-
a:5-5-5-5-7-7-7-7-222-
E:--------5-5-5-5-000-

lyrics

I was drivin' in my red convertable. (pause)
I think I'll turn on the radio. (pause)
I'd like to hear a commercial for a new  tv show.

chorus
If I take a spin, I'll go as fast as I can.
As fast as I can I'll go.
As fast as I can I'll go.

I think I'll drive out to the sea.
Get out, and play at the beach.
I look left and I look right, I see everything.

--that's it!  pretty short, but it's a great little song
for anyone to play!
Comments