Daddy Cool - Eagle Rock Chords & Tabs

 

Eagle Rock Chords & Tabs

Daddy Cool Chords & Tabs

Version: 5 Type: Tab 0 ratings
1 star 2 stars 3 stars 4 stars 5 stars
comments

Eagle Rock Tab

E---0--------0-----------------------0-------------------------0--------------|
B-------2------3---0-------2------------3---0--------2-----------3---0--------|
G----------------2-----------2------------2------------2-----------2----------|
D------------------------------------------------------------------------2222-|
A-0---0-----------------0----------0------------0----------0------------------|
E-----------------------------------------------------------------------------|

E-------------------------------------------------|
B-------------------------------------------------|
G-------------------------------------------------|
D-0-----------------------------------------------|
A-----2-2-2-2-2-2---------------------------------|
E-----2-2-2-2-2-2---------------------------------|
[ Tab from: http://www.guitartabs.cc/tabs/d/daddy_cool/eagle_rock_tab_ver_5.html ]
Comments