Daddy Cool - Eagle Rock Chords & Tabs

 

Eagle Rock Chords & Tabs

Daddy Cool Chords & Tabs

Version: 3 Type: Tab 0 ratings
1 star 2 stars 3 stars 4 stars 5 stars
comments

Eagle Rock Tab

   
Main Riff

e|-----0---------0----------|
B|-----------2------3-----0-|
G|---------------------2----|
D|--------------------------|
A|--0-----0------0--0--0----|
E|--------------------------|

e|-----------------------0----------|
B|--2--------2--------------3-----0-|
G|-----2-----------2-----------2----|
D|----------------------------------|
A|--0-----0--0--0-----0--0--0--0----|
E|----------------------------------|

e|-----------------------0----------|
B|--2--------2--------------3-----0-|
G|-----2-----------2-----------2----|
D|----------------------------------|
A|--0-----0--0--0-----0--0--0--0----|
E|----------------------------------|
[ Tab from: http://www.guitartabs.cc/tabs/d/daddy_cool/eagle_rock_tab_ver_3.html ]
e|----------------------------------|
B|----------------------------------|
G|--2-2---2---2---0-1---1---1---0---|
D|----------------------------------|
A|--0---0---0---0-0---0---0---0-0---|
E|----------------------------------|


Chorus

A A G B D A E A A G B D A E/A 


Main Riff x 4
Chorus
Main Riff x 2
Chorus
Main Riff x 4
Chorus 
Repeat [A E/A] from Chorus 3 times

To get the chorus sounding right, mute the chords on every down stroke.

I know this isnt 100% correct, but it's better than other tabs i have found.
I'd like to see tabs for the 2nd guitar in this song if anyones up for it.

Have Fun ;-)

Flatty
Comments