Daddy Cool - Eagle Rock Chords & Tabs

 

Eagle Rock Chords & Tabs

Daddy Cool Chords & Tabs

Version: 1 Type: Tab 0 ratings
1 star 2 stars 3 stars 4 stars 5 stars
comments

Eagle Rock Tab

Song:  Eagle rock
Artist: Daddy Cool
Tabbed by: Megan Maxwell

This is a great old song to be able to play, it isn’t difficult, and this is the only version that I know exists on the Internet that is 100% perfect! So just have fun with it and I hope you enjoy playing this excellent song as much as I do!
Key :  = is a up strum and + is a down strum (watch for these or it could sound totally wrong) 
p-pickoff 
h- hammer  
s- slide

Main Riff/ VERSES
E|-------------------------------0---------------------------------------------------------------0-------------------------------------|
B|---------2---------2-----------------------3---------0---------------2---------2---------------------------3----------0-----------|
G|------------2---------2-----------------2--------2----------------------2---------2-------------------2-----------2---------------|
D|--------------------------------------------------------------------------------------------------------------------------------------|
A|----------------0---------0-------0----------0----------0----0----------------0---------0-------0------------0------------0----0|
E|---------------------------------------------------------------------------------------------------------------------------------------|

E|-------------------------------0----------------------------------|----00000----0000000000---|
B|---------2---------2-----------------------3---------0----------|----00000----0000000000---|
G|------------2---------2-----------------2--------2--------------|----22222----1111111111---|
D|------------------------------------------------------------------|----22222----2222222222---|
A|----------------0---------0-------0----------0----------0—0-|----00000---22222222222---|
E|-----------------------------------------------------------------|----00000---00000000000---|
 (for these chords I didn’t wite down the exact strumming pattern so if you are that bothered about it listen to the song and it will be easy to pick up)

(repeat this through the verses)


CHORUS:
IMPORTANT: watch for the strumming pattern because it will sound totally different and wrong if you don’t get the right rythem and strumming going
E|-----x--x------------x--x---------x------x--x------------x--x------------x--------3-------------|
B|-----x--x----------- x--x---------x-----x--x----------- x--x------------x---------3-------------|
G|----3--3------------3--3----------3----3--3------------3--3-------------3---------0------------|
D|----3--3----------- 3--3----------3----3--3----------- 3--3-------------3---------0-------------|
A|----0--0----3h4---0-0-----3h4--0----0--0----3h4---0-0-----3h4-----0---------2---0--1--2-|
E|----x--x------------x--x----------x----x--x------------x--x-------------x----------3-------------|
         =  +                =   =             =     +  =               =   =                 =             +
[ Tab from: http://www.guitartabs.cc/tabs/d/daddy_cool/eagle_rock_tab.html ]
E|----2---2----------2---2-----------2-------2----2-------2---2----------2------------------------x--x------------x--x---------x--
B|----3---3----------3---3-----------3-------3---3--------3---3----------3---------3s7---5------x--x----------- x--x---------x--
G|----2---2----------2---2-----------2-------2---2--------2---3----------2-----2----------------3--3------------3--3----------3--
D|----x---x----------x---x-----------x-------x--x---------x---x----------x-----------------------3--3----------- 3--3----------3--
A|----x---x---3s4---x---x---3s4---x-------x---x---3s4-x----x--3s4---x------------------------0--0----3h4---0-0-----3h4--0
E|----x---x----------x---x-----------x-------x---x--------x----x---------x------------------------x--x------------x--x---------x-
         +    =             =    =             =         +    =          =     =            =                                +   =                =   =           =
---xxxxxxxx---|
---xxxxxxxx---|
---11111111---|
---22222222---|
---22222222---|
---00000000---|

E|-----x--x------------x--x---------x------x--x------------x--x------------x--------3-------------|
B|-----x--x----------- x--x---------x-----x--x----------- x--x------------x---------3-------------|
G|----3--3------------3--3----------3----3--3------------3--3-------------3---------0------------|
D|----3--3----------- 3--3----------3----3--3----------- 3--3-------------3---------0-------------|
A|----0--0----3h4---0-0-----3h4--0----0--0----3h4---0-0-----3h4-----0---------2---0--1--2-|
E|----x--x------------x--x----------x----x--x------------x--x-------------x----------3-------------|
         =  +                =   =             =     +  =               =   =                 =             +




E|----2---2----------2---2-----------2-------2----2-------2---2----------2------------------------x--x------------x--x---------x--
B|----3---3----------3---3-----------3-------3---3--------3---3----------3---------3s7---5------x--x----------- x--x---------x--
G|----2---2----------2---2-----------2-------2---2--------2---3----------2-----2----------------3--3------------3--3----------3--
D|----x---x----------x---x-----------x-------x--x---------x---x----------x-----------------------3--3----------- 3--3----------3--
A|----x---x---3s4---x---x---3s4---x-------x---x---3s4-x----x--3s4---x------------------------0--0----3h4---0-0-----3h4--0
E|----x---x----------x---x-----------x-------x---x--------x----x---------x------------------------x--x------------x--x---------x-
         +    =             =    =             =         +    =          =     =            =                                +   =                =   =           =

---xxx---0---|
---xxx---2---|
---111---2---|
---222---x---|
---222---x---|
---000---x---|

That’s the Chorus 
This is the solo, very simple.
E|------------12 ---------12-----------12 ---------12-----------12 ---------12-----------12 ----------12-----------12 ---------
B|---12h13-----12h13-------12h13-----12h13-------12h13-----12h13-------12h13-----12h13-------12h13-----12h13--
G|-------------------------------------------------------------------------------------------------------------------------------------
D|--------------------------------------------------------------------------------------------------------------------------------------
A|--------------------------------------------------------------------------------------------------------------------------------------
E|--------------------------------------------------------------------------------------------------------------------------------------
(Play this a few times then go into this: )
e|---8s9-9---9--9--9---9---9-----6s7---777777---|
b|---9s10---10-10-10-10-10-------8s9---999999---|
g|---8s9-----9---9---9--9—9------8s9---999999---|
d|------------------------------------------------------|
a|------------------------------------------------------|
e|------------------------------------------------------|

That’s the full song, if you have any comments please email me at maxwell_megan@hotmail.com, thanx heaps and I hope to hear from you soon.
 Love Megan xoxoxoxoxoxo
Comments