Dad - Sleeping My Day Away Chords & Tabs

 

Sleeping My Day Away Chords & Tabs

Dad Chords & Tabs

Version: 2 Type: Tab 0 ratings
1 star 2 stars 3 stars 4 stars 5 stars
comments

Sleeping My Day Away Tab

Sleeping My Day Away - D.A.D
Standard tuning (EADGBe)


Intro:

Guitar 1:
|-------------------------|
|-------------------------|
|-------------------------|
|---------2-----2---2-----|
|-----0-0-0-0-0-0-0-0-----|
|-------------------------|  x4
P.M . . . . . . . . . . .

Guitar 1 play alone 4 times, and after that, guitar 2. plays the bridge with him...


Bridge:

Guitar 2:
|---------------------------------|
|---------------------------------|
|---------------------------------|
|------2-----2-----2--------------|
|------------------------3-----3/5|
|--3h5---3h5---3h5---3h5---3h5----| x2

Guitar 1:
|---------------------|---------------------|----------------|
|---------------------|---------------------|----------------|
|---------------------|---------------------|-----(5)----(7)-|
|---------2-----2---2-|---------2-----2---2-|-----(5)----(7)-|
|-----0-0-0-0-0-0-0-0-|-----0-0-0-0-0-0-0-0-|-----(3)----(5)-|
|---------------------|---------------------|----------------|


Guitar 2:
|---------------------------------|
|---------------------------------|
|-----------2---------------------|
|-----2-----------2-----3-3/2-----|
|-----------------------------3/5-|
|-3h5---3h5---3h5---3h5-----------|

Guitar 1:
|---------------------|---------------------|----------------|
|---------------------|---------------------|----------------|
|---------------------|---------------------|-----(10)---(7)-|
|---------2-----2---2-|---------2-----2---2-|-----(10)---(7)-|
|-----0-0-0-0-0-0-0-0-|-----0-0-0-0-0-0-0-0-|-----(8)----(5)-|
|---------------------|---------------------|----------------|


Guitar 2:
|---------------------------------|
|---------------------------------|
|---------------------------------|
|------2-----2-----2--------------|
|------------------------3-3/5-7\5|
|--3h5---3h5---3h5---3h5----------|

Guitar 1:
|---------------------|---------------------|----------------|
|---------------------|---------------------|----------------|
|---------------------|---------------------|-----(5)----(7)-|
|---------2-----2---2-|---------2-----2---2-|-----(5)----(7)-|
|-----0-0-0-0-0-0-0-0-|-----0-0-0-0-0-0-0-0-|-----(3)----(5)-|
|---------------------|---------------------|----------------|

Verse:

Guitar 2:
|-------------------------------------------------------------------------------------|
|-------------------------------------------------------------------------------------|
|-------------------------------------------------------------------------------------|
|---------2-----2---2-----4-----4---4-----5-----5---5---------------------5-----5---5-|
|-----0-0-0-0-0-0-0-0-2-2-2-2-2-2-2-2-3-3-3-3-3-3-3-3-----5-----5-----3-3-3-3-3-3-3-3-|
|-----------------------------------------------------3-3-3-3-3-3-3-3-----------------|
P.M . . . . . . . . . . . . . . . . . . . . . . . . . . . . . . . . . . . . . . . . .

---------------------------------------------------------|
---------------------------------------------------------|
---------------------------------------------------------|
---------7-----7---7-----2-----2---2-----2-----2---2-----|
-----5-5-5-5-5-5-5-5-0-0-0-0-0-0-0-0-0-0-0-0-0-0-0-0-----|
---------------------------------------------------------|
P.M . . . . . . . . . . . . . . . . . . . . . . . . . .

Play the Verse 2 times but the last time instead of going down to the second fret, you 
keep playing on the fifth fret...

Then the chorus, and it is played just like the bridge...
But after the chorus play this an extra time, before the next verse:
[ Tab from: http://www.guitartabs.cc/tabs/d/dad/sleeping_my_day_away_tab_ver_2.html ]
Guitar 2:
|---------------------------------|
|---------------------------------|
|---------------------------------|
|------2-----2-----2--------------|
|------------------------3-----3/5|
|--3h5---3h5---3h5---3h5---3h5----|

Guitar 1:
|---------------------|---------------------|----------------|
|---------------------|---------------------|----------------|
|---------------------|---------------------|-----(5)----(7)-|
|---------2-----2---2-|---------2-----2---2-|-----(5)----(7)-|
|-----0-0-0-0-0-0-0-0-|-----0-0-0-0-0-0-0-0-|-----(3)----(5)-|
|---------------------|---------------------|----------------|

Listen carefull to the song to get the rythem and the rest of it right to my tab..

Now come another verse, and it is just like the other except for the litle thing with 
electric in the middle of the verse.. I have tried to get it in here is my best shot:

|----------------------------|
|----------------------------|
|----------------------------|
|-----9h10-7-5/7--5/7-5/7--|
|-----------7----------7-----|
|----------------------------| With Distortion on...

And then another chorus, and right after the chorus they play the first thing of the chorus again.

And then comes the solo:

|----------------------------------------|-------------------------------------|
|----------------------------------------|-------------------------------------|
|----------------------------------------|-------------------------------------|
|----------------------------------------|-------------------------------------|
|---------/7-7-7-5-5-5-3-3-3-2-3-/5-7-7--|-----7-7/12-14-14b15-12-10-8-5-8-5--|
|-----5__--------------------------------|-------------------------------------|

|----------------------------------------|-------------------------------------|
|----------------------------------------|-------------------------------------|
|----------------------------------------|-------------------------------------|
|----------------------------------------|-------------------------------------|
|-----0-7-7h10-7-7-------7-------7-7/8--|-----0-7-8-12-8-7~~---17-17p14-15----|
|-------------------8-7-5---8-7-5--------|-------------------------------------|

|----------------------------------------|-------------------------------------|
|----------------------------------------|-------------------------------------|
|----------------------------------------|-------------------------------------|
|----------------------------------------|-----------------15-15-17-17-19~~----|
|-----------14-15-------14-1517b19------|-----17-17-19-19---------------------|
|-----12-13-------12-13------------------|-------------------------------------|

After the solo tgey play:

|-------------------------------------|
|-------------------------------------|
|-----5-5-2~~-5-5-2~~--5-5-5-7-9-7~~--|
|-------------------------------------|
|-------------------------------------|
|-------------------------------------| x2

And then the chorus 2 times, and play the last lines in the chorus a couple of times and 
end on the E5, on second freet.


The following is some explanation of the symbols i have used in my tab..

P.M - Palm Mute

~   - Virbrato

__  - Kind of Fading out*
*(pick the note a couple of times and do it lightere after a short while)

h   - hammer_on

p   - pull_of

( ) - Long notes

/   - S-lide up to note

\   - Slide down to note

b   - bend note


ThAt's it!
Hope you'll all enjoy...
I did!
---------------------------------------------------------
Any questions? Coments? Then send a mail to:
Frederik_Thaysen@hotmail.com
Comments