Dad - I Want What Shes Got Chords & Tabs

 

I Want What Shes Got Chords & Tabs

Dad Chords & Tabs

Version: 1 Type: Bass Tab 0 ratings
1 star 2 stars 3 stars 4 stars 5 stars
comments

I Want What Shes Got Bass Tab

Band: DAD
Song: I Want What She's Got
By Tinspa

 Intro/Verse
 
 G|------------------------------------------------------------------|
 D|------------------------------------------------------------------|
 A|------------------------------------------------------------------|x3
 D|--0-12-12-12-12-12-0-10-10-0-9-9-9-9-0-8-8-8-8-8-0-7-7-0-5-5-3-2--|

 G|-------------------------------------------|
 D|-------------------------------------------|
 A|-------------------------------------------|x1
 D|--0-12-12-12-12-12-0-10-10-0-9-9-9-9-0-8r--|

 Chorus

 G|--------------------------------------------------|
 D|--------------------------------------------------|
 A|--------------------------------------------------|x2
 D|--8--8--8--8--5--5--5--5--0--0--0--0--0--0--0--0--|

 G|--------------------------|
 D|--------------------------|
 A|--------------------------|x1
 D|--8--8--8--8--5--5--5--5--|

 Verse

 G|------------------------------------------------------------------|
 D|------------------------------------------------------------------|
 A|------------------------------------------------------------------|x3
 D|--0-12-12-12-12-12-0-10-10-0-9-9-9-9-0-8-8-8-8-8-0-7-7-0-5-5-3-2--|

 G|-------------------------------------------|
 D|-------------------------------------------|
 A|-------------------------------------------|x1
 D|--0-12-12-12-12-12-0-10-10-0-9-9-9-9-0-8r--|

 Chorus

 G|--------------------------------------------------|
 D|--------------------------------------------------|
 A|--------------------------------------------------|x3
 D|--8--8--8--8--5--5--5--5--0--0--0--0--0--0--0--0--|

 G|--------------------------------------------------|
 D|--------------------------------------------------|
 A|--------------------------------------------------|x1
 D|--8--8--8--8--5--5--5--5--0--0--0--0r-------------|
[ Tab from: http://www.guitartabs.cc/tabs/d/dad/i_want_what_shes_got_btab.html ]
 G|--------------------------------------------------|
 D|--------------------------------------------------|
 A|-------------------------------------5r-----------|x3
 D|--8r----------5r----------0r----------------------|

 G|--------------------------------------------------|
 D|--------------------------------------------------|
 A|--------------------------------------------------|x1
 D|--8r----------5r----------0r--(0)--(0)--(0)--(0)--|

 Solo

 G|------------------------------------------------------------------|
 D|------------------------------------------------------------------|
 A|------------------------------------------------------------------|x3
 D|--0-12-12-12-12-12-0-10-10-0-9-9-9-9-0-8-8-8-8-8-0-7-7-0-5-5-3-2--|

 G|--------------------------------------------------------------------|
 D|--------------------------------------------------------------------|
 A|--------------------------------------------------------------------|x1
 D|--0-12-12-12-12-12-0-10-10-0-9-9-9-9-0-8-8-8-8-8-0-7-7-0-5-5-3-2-0r-|

 G|-------------------------------------------|
 D|-------------------------------------------|
 A|-------------------------------------------|x1
 D|--0-12-12-12-12-12-0-10-10-0-9-9-9-9-0-8r--|

 Chorus

 G|--------------------------------------------------|
 D|--------------------------------------------------|
 A|--------------------------------------------------|x3
 D|--8--8--8--8--5--5--5--5--0--0--0--0--0--0--0--0--|

 G|------------------------------------------------------|
 D|------------------------------------------------------|
 A|------------------------------------------------------|x1
 D|--8--8--8--8--5--5--5--5--0--0--0--0-(0)-(0)-(0)-(0)--|
   
 Verse/Outro

 G|------------------------------------------------------------------|
 D|------------------------------------------------------------------|
 A|------------------------------------------------------------------|x1
 D|--0-12-12-12-12-12-0-10-10-0-9-9-9-9-0-8-8-8-8-8-0-7-7-0-5-5-3-2--|

 G|----------------------------------------------------------------------|
 D|----------------------------------------------------------------------|
 A|----------------------------------------------------------------------|x1
 D|--0-12-12-12-12-12-0-10-10-0-9-9-9-9-0-8-8-8-8-8-0-7-7-0-5--5--3--2r--|
Comments