Dad - Evil Twin Chords & Tabs

 

Evil Twin Chords & Tabs

Dad Chords & Tabs

Version: 1 Type: Tab 0 ratings
1 star 2 stars 3 stars 4 stars 5 stars
comments

Evil Twin Tab

e------------------------------------------------------------------|
H------------------------------------------------------------------|
G------------------------------------------------------------------|
D------------------------------------------------------------------|
A-----8-8--10/12--8---------------8-8--10/12--8--------------------|
E--10---------------10--------10-----------------------------------|


e------------------------------------------------------------------------|
H------------------------------------------------------------------------|
G------------------------------------------------------------------------|
D------------------------------------------------------------------------|
A-----8-8--10/12--8---------------8-10-10-8------------------------------|
E--10---------------10--------10-------------8---------------------------|

[ Tab from: http://www.guitartabs.cc/tabs/d/dad/evil_twin_tab.html ]
e------------------------------------------------------------------------|
H------------------------------------------------------------------------|
G------------------------------------------------------------------------|
D------------------------------------------------------------------------|
A-----8-8--10/12--8---------------8-8--10/12--8--------------------------|
E--10---------------10--------10-----------------------------------------|


e-------------------------------------------------------------------------|
H-------------------------------------------------------------------------|
G-------------------------------------------------------------------------|
D-------------------------------------------------------------------------|
A-----8-8--10/12--8---------------8-10-10-8-10-10-10-8-10/12-10-10-8--10--|b
E--10---------------10--------10------------------------------------------|

thats the main parts. you're gonna have to figure out the solo yourself ;)
Comments