Dad - Everything Glows Chords & Tabs

 

Everything Glows Chords & Tabs

Dad Chords & Tabs

Version: 4 Type: Tab 0 ratings
1 star 2 stars 3 stars 4 stars 5 stars
comments

Everything Glows Tab

   
Song: Everything Glows

Band: D-A-D

Tabbed by Stev

Tuning: Standard

Note: This is a very detailed tab of everything glows, so for those of you
That doesn't understand it, there is an explanation at the bottom.
Also there might be some errors in it, but hey, you're welcome to correct them.


                     PM PM PM PM PM PM PM PM    PM PM PM PM PM PM PM PM
                     E  E  E  E  E  E  E  E     E  E  E  E  E  E  E  E
E||-------|-------|--------------------------|--------------------------|
B||-------|-------|--------------------------|--------------------------|
G||-------|-------|--------------------------|--------------------------|
D||-------|-------|--------------------------|--------------------------|
A||-------|-------|--6--6--6--5--3--3--3-----|--------------------------|
E||-------|-------|-----------------------3--|--3--3--3--3--3--3--3--3--|


  PM PM PM PM PM PM PM PM    PM PM PM PM PM PM PM PM
  E  E  E  E  E  E  E  E     E  E  E  E  E  E  E  E
--------------------------|--------------------------|
--------------------------|--------------------------|
--------------------------|--------------------------|
--------------------------|--------------------------|
--6--6--6--5--3--3--3-----|--------------------------|
-----------------------3--|--3--3--3--3--3--3--3--3--|


  PM PM PM PM PM PM PM PM    PM PM PM PM PM PM PM PM
  E  E  E  E  E  E  E  E     E  E  E  E  E  E  E  E
--------------------------|--------------------------|
--------------------------|--------------------------|
--------------------------|--------------------------|
--------------------------|--------------------------|
--6--6--6--5--3--3--3-----|--------------------------|
-----------------------3--|--3--3--3--3--3--3--3--3--|


  PM PM PM PM PM PM PM PM    PM PM PM PM PM PM PM PM
  E  E  E  E  E  E  E  E     E  E  E  E  E  E  E  E
--------------------------|--------------------------|
--------------------------|--------------------------|
--------------------------|--------------------------|
--------------------------|--------------------------|
--6--6--6--5--3--3--3-----|--------------------------|
-----------------------3--|--3--3--3--3--3--3--3--3--|


  PM PM PM PM PM PM PM PM       PM PM PM PM PM PM PM
  E  E  E  E  E  E  E  E     E  E  E  E  E  E  E  E
--------------------------|--------------------------|
--------------------------|--------------------------|
--------------------------|--------------------------|
--------------------------|--------------------------|
--1--1--1--1--1--1--3--3--|--L-----------------------|
--------------------------|-----3--3--3--3--3--3--3--|


  PM PM PM PM PM PM PM PM       PM PM PM PM PM PM PM
  E  E  E  E  E  E  E  E     E  E  E  E  E  E  E  E
--------------------------|--------------------------|
--------------------------|--------------------------|
--------------------------|--------------------------|
--------------------------|--------------------------|
--1--1--1--1--1--1--3--3--|--L-----------------------|
--------------------------|-----3--3--3--3--3--3--3--|


  PM PM PM PM PM PM PM PM       PM PM PM PM PM PM PM
  E  E  E  E  E  E  E  E     E  E  E  E  E  E  E  E
--------------------------|--------------------------|
--------------------------|--------------------------|
--------------------------|--------------------------|
--------------------------|--------------------------|
--1--1--1--1--1--1--3--3--|--L-----------------------|
--------------------------|-----3--3--3--3--3--3--3--|


  PM PM PM PM PM PM PM PM       PM PM PM PM PM PM PM
  E  E  E  E  E  E  E  E     E  E  E  E  E  E  E  E
--------------------------|--------------------------|
--------------------------|--------------------------|
--------------------------|--------------------------|
--------------------------|--------------------------|
--1--1--1--1--1--1--3--3--|--L-----------------------|
--------------------------|-----3--3--3--3--3--3--3--|


  PM PM PM PM PM PM PM PM    PM PM PM PM PM PM PM PM
  E  E  E  E  E  E  E  E     E  E  E  E  E  E  E  E
--------------------------|--------------------------|
--------------------------|--------------------------|
--------------------------|--------------------------|
--------------------------|--------------------------|
--6--6--6--5--3--3--3-----|--------------------------|
-----------------------3--|--3--3--3--3--3--3--3--3--|


  PM PM PM PM PM PM PM PM    PM PM PM PM PM PM PM PM
  E  E  E  E  E  E  E  E     E  E  E  E  E  E  E  E
--------------------------|--------------------------|
--------------------------|--------------------------|
--------------------------|--------------------------|
--------------------------|--------------------------|
--6--6--6--5--3--3--3-----|--------------------------|
-----------------------3--|--3--3--3--3--3--3--3--3--|


  PM PM PM PM PM PM PM PM    PM PM PM PM PM PM PM PM
  E  E  E  E  E  E  E  E     E  E  E  E  E  E  E  E
--------------------------|--------------------------|
--------------------------|--------------------------|
--------------------------|--------------------------|
--------------------------|--------------------------|
--6--6--6--5--3--3--3-----|--------------------------|
-----------------------3--|--3--3--3--3--3--3--3--3--|


  PM PM PM PM PM PM PM PM       PM PM PM PM PM PM PM
  E  E  E  E  E  E  E  E     E  E  E  E  E  E  E  E     Q    E  E  E  E  E  E
--------------------------|--------------------------|-------------------------|
--------------------------|--------------------------|-------------------------|
--------------------------|--------------------------|--8----x--x--x--8--x-----|
--------------------------|--------------------------|--8----x--x--x--8--x--5--|
--1--1--1--3--3--3--3--3--|--L-----------------------|--6----x--x--x--6--x--5--|
--------------------------|-----3--3--3--3--3--3--3--|----------------------3--|


  E  E  E  E  E  E  E  E     Q    E  E  E  E  E  E     E  E  E  E  E  E  E  E
--------------------------|-------------------------|----------------------------|
--------------------------|-------------------------|----------------------------|
--------x--x--x--------x--|--8----x--x--x--8--x-----|-----x--x--x--x--------x----|
--L--L--x--x--x--5--L--x--|--8----x--x--x--8--x--5--|--L--x--x--x--x--5--L--x----|
--L--L--x--x--x--5--L--x--|--6----x--x--x--6--x--5--|--L--x--x--x--x--5--L--x----|
--L--L--x--x--x--3--L--x--|----------------------3--|--L--x--x--x--x--3--L--x----|


  Q    E  E  E  E  E  E     E  E  E  E  E  E  E  E     Q    E  E  E  E  E  E
-------------------------|--------------------------|-------------------------|
-------------------------|--------------------------|-------------------------|
--8----x--x--x--8--x-----|--------x--x--x--------x--|--3----x--5--L--5--x-----|
--8----x--x--x--8--x--5--|--L--L--x--x--x--5--L--x--|--3----x--5--L--5--x--5--|
--6----x--x--x--6--x--5--|--L--L--x--x--x--5--L--x--|--1----x--3--L--3--x--5--|
----------------------3--|--L--L--x--x--x--3--L--x--|----------------------3--|


  E  E  E  E  E  E  Q         H          S S S S S S  E
--------------------------|--------------------------------|
--------------------------|--------------------------------|
-----x-----x-----x--------|--------------------------------|
--5--x--5--x--5--x--3S----|--16S~----------------L-L-13b~--|
--5--x--5--x--5--x--L-----|--------------------------------|
--3--x--3--x--3--x--L-----|--------------------------------|


                 <
  H        E  E  Q         H          S S S S S  S  E
-----------------------|---------------------------------|
-----------------------|---------------------------------|
-----------------------|---------------------------------|
--------------L--3S----|--16S~----------------L--L-13b~--|
-----------------------|---------------------------------|
-----------------------|---------------------------------|


                 <
  H        E  E  Q         H          S S S S S S  E
-----------------------|--------------------------------|
-----------------------|--------------------------------|
-----------------------|--------------------------------|
--------------L--3S----|--16S~----------------L-L-13b~--|
-----------------------|--------------------------------|
-----------------------|--------------------------------|


                 <
  H        E  E  Q         H          S S S S S  S  E
-----------------------|---------------------------------|
-----------------------|---------------------------------|
-----------------------|---------------------------------|
--------------L--3S----|--16S~----------------L--L-13b~--|
-----------------------|---------------------------------|
-----------------------|---------------------------------|


                         PM PM PM PM PM PM PM PM       PM PM PM PM PM PM PM
  H        E  E  Q       E  E  E  E  E  E  E  E     E  E  E  E  E  E  E  E
----------------------|--------------------------|--------------------------|
----------------------|--------------------------|--------------------------|
----------------------|--------------------------|--------------------------|
--------------L--L----|--------------------------|--------------------------|
----------------------|--1--1--1--1--1--1--3--3--|--L-----------------------|
----------------------|--------------------------|-----3--3--3--3--3--3--3--|


  PM PM PM PM PM PM PM PM       PM PM PM PM PM PM PM
  E  E  E  E  E  E  E  E     E  E  E  E  E  E  E  E
--------------------------|--------------------------|
--------------------------|--------------------------|
--------------------------|--------------------------|
--------------------------|--------------------------|
--1--1--1--1--1--1--3--3--|--L-----------------------|
--------------------------|-----3--3--3--3--3--3--3--|


  PM PM PM PM PM PM PM PM       PM PM PM PM PM PM PM
  E  E  E  E  E  E  E  E     E  E  E  E  E  E  E  E
--------------------------|--------------------------|
--------------------------|--------------------------|
--------------------------|--------------------------|
--------------------------|--------------------------|
--1--1--1--1--1--1--3--3--|--L-----------------------|
--------------------------|-----3--3--3--3--3--3--3--|


  PM PM PM PM PM PM PM PM       PM PM PM PM PM PM PM
  E  E  E  E  E  E  E  E     E  E  E  E  E  E  E  E
--------------------------|--------------------------|
--------------------------|--------------------------|
--------------------------|--------------------------|
--------------------------|--------------------------|
--1--1--1--1--1--1--3--3--|--L-----------------------|
--------------------------|-----3--3--3--3--3--3--3--|

[ Tab from: http://www.guitartabs.cc/tabs/d/dad/everything_glows_tab_ver_4.html ]
  PM PM PM PM PM PM PM PM    PM PM PM PM PM PM PM PM
  E  E  E  E  E  E  E  E     E  E  E  E  E  E  E  E
--------------------------|--------------------------|
--------------------------|--------------------------|
--------------------------|--------------------------|
--------------------------|--------------------------|
--6--6--6--5--3--3--3-----|--------------------------|
-----------------------3--|--3--3--3--3--3--3--3--3--|


  PM PM PM PM PM PM PM PM    PM PM PM PM PM PM PM PM
  E  E  E  E  E  E  E  E     E  E  E  E  E  E  E  E
--------------------------|--------------------------|
--------------------------|--------------------------|
--------------------------|--------------------------|
--------------------------|--------------------------|
--6--6--6--5--3--3--3-----|--------------------------|
-----------------------3--|--3--3--3--3--3--3--3--3--|


  PM PM PM PM PM PM PM PM    PM PM PM PM PM PM PM PM
  E  E  E  E  E  E  E  E     E  E  E  E  E  E  E  E
--------------------------|--------------------------|
--------------------------|--------------------------|
--------------------------|--------------------------|
--------------------------|--------------------------|
--6--6--6--5--3--3--3-----|--------------------------|
-----------------------3--|--3--3--3--3--3--3--3--3--|


  PM PM PM PM PM PM PM PM       PM PM PM PM PM PM PM
  E  E  E  E  E  E  E  E     E  E  E  E  E  E  E  E
--------------------------|--------------------------|
--------------------------|--------------------------|
--------------------------|--------------------------|
--------------------------|--------------------------|
--1--1--1--3--3--3--3--3--|--L-----------------------|
--------------------------|-----3--3--3--3--3--3--3--|


  PM PM PM PM PM PM PM PM       PM PM PM PM PM PM PM
  E  E  E  E  E  E  E  E     E  E  E  E  E  E  E  E     Q    E  E  E  E  E  E
--------------------------|--------------------------|-------------------------|
--------------------------|--------------------------|-------------------------|
--------------------------|--------------------------|--8----x--x--x--8--x-----|
--------------------------|--------------------------|--8----x--x--x--8--x--5--|
--1--1--1--3--3--3--3--3--|--L-----------------------|--6----x--x--x--6--x--5--|
--------------------------|-----3--3--3--3--3--3--3--|----------------------3--|


  E  E  E  E  E  E  E  E     Q    E  E  E  E  E  E     E  E  E  E  E  E  E  E
--------------------------|-------------------------|--------------------------|
--------------------------|-------------------------|--------------------------|
--------x--x--x--------x--|--8----x--x--x--8--x-----|-----x--x--x--x--------x--|
--L--L--x--x--x--5--L--x--|--8----x--x--x--8--x--5--|--L--x--x--x--x--5--L--x--|
--L--L--x--x--x--5--L--x--|--6----x--x--x--6--x--5--|--L--x--x--x--x--5--L--x--|
--L--L--x--x--x--3--L--x--|----------------------3--|--L--x--x--x--x--3--L--x--|


  Q    E  E  E  E  E  E     E  E  E  E  E  E  E  E     Q    E  E  E  E  E  E
-------------------------|--------------------------|-------------------------|
-------------------------|--------------------------|-------------------------|
--8----x--x--x--8--x-----|--------x--x--x--------x--|--3----x--5--L--5--x-----|
--8----x--x--x--8--x--5--|--L--L--x--x--x--5--L--x--|--3----x--5--L--5--x--5--|
--6----x--x--x--6--x--5--|--L--L--x--x--x--5--L--x--|--1----x--3--L--3--x--5--|
----------------------3--|--L--L--x--x--x--3--L--x--|----------------------3--|


  E  E  E  E  E  E  Q        Q    E  E  E  E  E  E     E  E  E  E  E  E  Q
--------------------------|-------------------------|--------------------------|
--------------------------|-------------------------|--------------------------|
-----x-----x-----x--------|--3----x--5--L--5--x-----|-----x-----x-----x--------|
--5--x--5--x--5--x--5S----|--3----x--5--L--5--x--5--|--5--x--5--x--5--x--5S----|
--5--x--5--x--5--x--5-----|--1----x--3--L--3--x--5--|--5--x--5--x--5--x--5-----|
--3--x--3--x--3--x--3-----|----------------------3--|--3--x--3--x--3--x--3-----|


                                   H          S S S S S S  E
-------|-------|-------|-------|--------------------------------|
-------|-------|-------|-------|--------------------------------|
-------|-------|-------|-------|--------------------------------|
-------|-------|-------|-------|--16S~----------------L-L-13b~--|
-------|-------|-------|-------|--------------------------------|
-------|-------|-------|-------|--------------------------------|


                 <
  H        E  E  Q         H          S S S S S  S  E
-----------------------|---------------------------------|
-----------------------|---------------------------------|
-----------------------|---------------------------------|
--------------L--3S----|--16S~----------------L--L-13b~--|
-----------------------|---------------------------------|
-----------------------|---------------------------------|


                 <
  H        E  E  Q         H          S S S S S S  E
-----------------------|--------------------------------|
-----------------------|--------------------------------|
-----------------------|--------------------------------|
--------------L--3S----|--16S~----------------L-L-13b~--|
-----------------------|--------------------------------|
-----------------------|--------------------------------|


                 <
  H        E  E  Q         H          S S S S S  S  E
-----------------------|---------------------------------|
-----------------------|---------------------------------|
-----------------------|---------------------------------|
--------------L--3S----|--16S~----------------L--L-13b~--|
-----------------------|---------------------------------|
-----------------------|---------------------------------|


  H        E  E  Q       Q    E  Q    E  Q       W
----------------------|-----------------------|-------------------|
----------------------|-----------------------|-------------------|
----------------------|-----------------------|-------------------|
--------------L--L----|-----------------------|-------------------|
----------------------|--1----L--3----5-------|-------------------|
----------------------|------------------3----|--L----------------|


  Q    E  Q    E  E  E     W                   Q    E  Q    E  Q
------------------------|-------------------|-----------------------|
------------------------|-------------------|-----------------------|
------------------------|-------------------|-----------------------|
------------------------|-------------------|-----------------------|
--1----L--3----5--6--5--|--L----------------|--1----L--3----5-------|
------------------------|-------------------|------------------3----|


  W                   E  Q    Q    Q    E     W
-------------------|-----------------------|-------------------|
-------------------|-----------------------|-------------------|
-------------------|-----------------------|-------------------|
-------------------|-----------------------|-------------------|
-------------------|--5-------1----3-------|-------------------|
--L----------------|-----3--------------3--|--L----------------|


  Q    E  E  E  E  E  E     E  E  E  E  E  E  E  E     Q    E  E  E  E  E  E
-------------------------|--------------------------|-------------------------|
-------------------------|--------------------------|-------------------------|
--8----x--x--x--8--x-----|--------x--x--x--------x--|--8----x--x--x--8--x-----|
--8----x--x--x--8--x--5--|--L--L--x--x--x--5--L--x--|--8----x--x--x--8--x--5--|
--6----x--x--x--6--x--5--|--L--L--x--x--x--5--L--x--|--6----x--x--x--6--x--5--|
----------------------3--|--L--L--x--x--x--3--L--x--|----------------------3--|


  E  E  E  E  E  E  E  E     Q    E  E  E  E  E  E     E  E  E  E  E  E  E  E
--------------------------|-------------------------|--------------------------|
--------------------------|-------------------------|--------------------------|
-----x--x--x--x--------x--|--8----x--x--x--8--x-----|--------x--x--x--------x--|
--L--x--x--x--x--5--L--x--|--8----x--x--x--8--x--5--|--L--L--x--x--x--5--L--x--|
--L--x--x--x--x--5--L--x--|--6----x--x--x--6--x--5--|--L--L--x--x--x--5--L--x--|
--L--x--x--x--x--3--L--x--|----------------------3--|--L--L--x--x--x--3--L--x--|


  Q    E  E  E  E  E  E     E  E  E  E  E  E  Q        Q    E  E  E  E  E  E
-------------------------|--------------------------|-------------------------|
-------------------------|--------------------------|-------------------------|
--3----x--5--L--5--x-----|-----x-----x-----x--------|--3----x--5--L--5--x-----|
--3----x--5--L--5--x--5--|--5--x--5--x--5--x--5S----|--3----x--5--L--5--x--5--|
--1----x--3--L--3--x--5--|--5--x--5--x--5--x--5-----|--1----x--3--L--3--x--5--|
----------------------3--|--3--x--3--x--3--x--3-----|----------------------3--|


                             PM PM PM PM PM PM PM PM
  E  E  E  E  E  E  Q        E  E  E  E  E  E  E  E
--------------------------|--------------------------|
--------------------------|--------------------------|
-----x-----x-----x--------|--------------------------|
--5--x--5--x--5--x--5S----|--------------------------|
--5--x--5--x--5--x--5-----|--6--6--6--5--3--3--3-----|
--3--x--3--x--3--x--3-----|-----------------------3--|


  PM PM PM PM PM PM PM PM    PM PM PM PM PM PM PM PM
  E  E  E  E  E  E  E  E     E  E  E  E  E  E  E  E
--------------------------|--------------------------|
--------------------------|--------------------------|
--------------------------|--------------------------|
--------------------------|--------------------------|
--------------------------|--6--6--6--5--3--3--3-----|
--3--3--3--3--3--3--3--3--|-----------------------3--|


  PM PM PM PM PM PM PM PM    PM PM PM PM PM PM PM PM
  E  E  E  E  E  E  E  E     E  E  E  E  E  E  E  E
--------------------------|--------------------------|
--------------------------|--------------------------|
--------------------------|--------------------------|
--------------------------|--------------------------|
--------------------------|--6--6--6--5--3--3--3-----|
--3--3--3--3--3--3--3--3--|-----------------------3--|


  PM PM PM PM PM PM PM PM    PM PM PM PM PM PM PM PM
  E  E  E  E  E  E  E  E     E  E  E  E  E  E  E  E
--------------------------|--------------------------|
--------------------------|--------------------------|
--------------------------|--------------------------|
--------------------------|--------------------------|
--------------------------|--6--6--6--5--3--3--3-----|
--3--3--3--3--3--3--3--3--|-----------------------3--|


  PM PM PM PM PM PM PM PM
  E  E  E  E  E  E  E  E
--------------------------||
--------------------------||
--------------------------||
--------------------------||
--------------------------||
--3--3--3--3--3--3--3--3--||


Duration Legend
---------------
W - whole
H - half
Q - quarter
E - 8th
S - 16th
T - 32nd
X - 64th
. - note dotted
|-n-|  - n-tuplets


Tablature Legend
----------------
L - tied note
x - dead note
g - grace note
(n) - ghost note
> - accentuded note
NH - natural harmonic
AH - artificial harmonic
TH - tapped harmonic
SH - semi harmonic
PH - pitch harmonic
h - hammer on
p - pull off
b - bend
br - bendRelease
pb - preBend
pbr - preBendRelease
brb - bendReleaseBend
\n/ - tremolo bar dip
\n - tremolo bar dive
-/n - tremolo bar Release up
/n\ - tremolo bar inverted dip
/n - tremolo bar return
-\n - tremolo bar Release down
S - shift slide
s - legato slide
/ -  slide into from below or out of upwards
\ -  slide into from above or out of downwards
~ - vibrato
W - wide vibrato
tr - trill
TP - tremolo picking
T - tapping
S - slap
P - pop
< - fade in
^ - brush up
v - brush down
Comments