Dad - Everything Glows Chords & Tabs

 

Everything Glows Chords & Tabs

Dad Chords & Tabs

Version: 1 Type: Bass Tab 0 ratings
1 star 2 stars 3 stars 4 stars 5 stars
comments

Everything Glows Bass Tab

Disneyland After Dark(D-A-D)
Everything Glows bass tab
 

Tabbed by Martin Pedersen (mk15p@hotmail.com)


Standard tuning


riff 1 INTRO / VERSE, AFTER RIFF 2 / SOLO
 
 G|------------------------------------------------------------|
 D|------------------------------------------------------------|
 A|---6-6-6-5-3-3-3--------------------------------------------|
 E|-----------------3-3-3-3-3-3-3-3-3--------------------------|

riff 2 VERSE

 G|------------------------------------------------------------|
 D|------------------------------------------------------------|
 A|---1-1-1-1-1-1-1-3-3----------------------------------------|
 E|---------------------3-3-3-3-3-3-3--------------------------|
[ Tab from: http://www.guitartabs.cc/tabs/d/dad/everything_glows_btab.html ]
riff 3 CHORUS
 
 G|------------------------------------------------------------|
 D|------------------------------------------------------------|
 A|---6-----5-3-3-3--------------------------------------------|
 E|-----------------3-3-3-3-3-3-3-3-3--------------------------|


 riff 4 AFTER CHORUS 

 G|------------------------------------------------------------|
 D|------------------------------------------------------------|
 A|---1---1---1---1-3---3--------------------------------------|
 E|-----------------------3---3---3----------------------------|

riff 5 PLAYED AFTER 2 x RIFF 3
 
 G|------------------------------------------------------------|
 D|---1-------0------------------------------------------------|
 A|-------------3-3-3-------0-0-1-1-1-1------------------------|
 E|-------------------3-3-3------------------------------------| 

Form:

Riff 1 X 4
Riff 2	X 4
Riff 1	X 4
Riff 3	X 4
Riff 4	X 4
Riff 2	X 4
Riff 1	X 5
Riff 3	X 2
Riff 5  X 1
Riff 3  X 2
Interlude 
Riff 4	X 4
Riff 1	X 4
Riff 3	X 5
Riff 1	Repeat for the rest of the song and fade out
Comments