Dad - A New Age Moving In Chords & Tabs

 

A New Age Moving In Chords & Tabs

Dad Chords & Tabs

Version: 1 Type: Tab 0 ratings
1 star 2 stars 3 stars 4 stars 5 stars
comments

A New Age Moving In Tab

   
Song: A New Age Moving In
Album: DIC.NII.LAN.DAFT.ERD.ARK
Tuning: Standard (EADGBe)
Tabbed by: Anton Brügmann (Antonzb96)

This is what I have figured out, and I think it’s right. So good luck, and I hope you can use it.

Intro:
e|----------------------------------|
B|----------------------------------|
G|----------------------------------|
D|----------------------------------|
A|----------------------------------|
E|--0-0-0-17-0-0-17-0-0-17-0-15-15--|


Vers:
e|-----------------------------|
B|-----------------------------|
G|-----------------------------|
D|-----------------------------|
A|-----------------------------|
E|--0-0-0-5-0-0-5-0-0-5-0-3-3--|


Lead fill:
e|-------------------------|
B|-------------------------|
G|-------------------------|
D|--2b3--2-0-----0-------0-|
A|-------------2--0---0-2--|
E|-------------------------|


Bridge:
e|----------------------------------|
B|----------------------------------|
G|----------------------------------|
D|--12-12-12-12-12-12-10-9-9-14-14--|
A|----------------------------------|
E|--10-10-10-10-10-10-8--7-7-12-12--|


Pre-Chorus:
e|--------------------------------------------|
B|--------------------------------------------|
G|--9--9--9--9--9--9--9--9---9-9-9-9-9-9-9-9--|      x 2
D|--10-10-10-10-10-10-10-10--9-9-9-9-9-9-9-9--|
A|--7--7--7--7--7--7--7--7---7-7-7-7-7-7-7-7--|
E|--------------------------------------------|
[ Tab from: http://www.guitartabs.cc/tabs/d/dad/a_new_age_moving_in_tab.html ]
e|-------------------------------------|
B|-------------------------------------|
G|--7-7-7-7-7-7-7-7---7-7-7-7-7-7-7-7--|    x 2
D|--7-7-7-7-7-7-7-7---9-9-9-9-9-9-9-9--|
A|--5-5-5-5-5-5-5-5---5-5-5-5-5-5-5-5--|
E|-------------------------------------|


Chorus:
e|---------------------------------------------------|
B|---------------------------------------------------|
G|---------------------------5-5-5-5-5---------------|
D|--2-2-2-2-2---5-5-5-5-5----5-5-5-5-5----7-7-7-7-7--|
A|--2-2-2-2-2---5-5-5-5-5----3-3-3-3-3----7-7-7-7-7--|
E|--0-0-0-0-0---3-3-3-3-3-----------------5-5-5-5-5--|


Solo:
e|---------------------------------------------------|
B|---------------------------------------------------|
G|---------------------------------------------------|
D|---------------------------------------------------|
A|---------------------------------------------------|
E|--0-0-0-3-0-0-0-3-0-0-0-0---0-0-0-3-0-0-0-3-0-0-0--|

e|--------------------------------------------------------------------------|
B|--------------------------------------------------------------------------|
G|--------------------------------------------------------------------------|  
D|--------------------------------------------------------------------------| 	
A|--------------------------------------------------------------------------|
E|--12-12-12-15-12-12-12-15-12-12-12-12---12-12-12-15-12-12-12-15-12-12-12--|


The bands website: www.D-A-D.dk
Comments