D12 - My Band Chords & Tabs

 

My Band Chords & Tabs

D12 Chords & Tabs

Version: 2 Type: Tab 0 ratings
1 star 2 stars 3 stars 4 stars 5 stars
comments

My Band Tab

Artist: D12
Song: My Band

Hear is another way to play it plus i think it's a lot more correct then the
other version, Expect it's in a lower octave.

[ Tab from: http://www.guitartabs.cc/tabs/d/d12/my_band_tab_ver_2.html ]
E:---------------------------
B:---------------------------
G:-------2-1-----------------
D:-----4----4---4------------
A:---4--------4---5-4-5-2----
E:---------------------------

E:---------------------------
B:---------------------------
G:-------2-1-----------------
D:-----4----4---4------------
A:---4--------4---5-4-5-2----
E:---------------------------
Comments