Cypress Hill - Trouble Chords & Tabs

 

Trouble Chords & Tabs

Cypress Hill Chords & Tabs

Version: 1 Type: Tab 0 ratings
1 star 2 stars 3 stars 4 stars 5 stars
comments

Trouble Tab

Group: Cypress Hill
Song: Trouble (Intro)
Album: Stoned Raiders?

This is the intro to the new one called trouble

Tuning: BADGBe (there is a seven sting in volved here but
                tune you E down to a B and it should work)

Repeat as many times as you want
e-----------------------0---------------------------------------|
B--------0------------------------------------------------------|
G----------------0----------------------------------------------|
D---------------------------------------------------------------|
A---------------------------------------------------------------|
B-----5-----0h1-----3-------------------------------------------|

Thats all i know coz i got it from a guitar mag. I guess that there
are some big hefty distorted power chords i'll take a stab at it.
[ Tab from: http://www.guitartabs.cc/tabs/c/cypress_hill/trouble_tab.html ]
e---------------------------------------------------------------|
B---------------------------------------------------------------|
G---------------------------------------------------------------|
D----5-------0h1----3-------------------------------------------|
A----5-------0h1----3-------------------------------------------|
B----5-------0h1----3-------------------------------------------|
    |_let ring_______|
or

e----------------------------------------------------------------|
B----------------------------------------------------------------|
G----------------------------------------------------------------|
D----7-------0h3----5--------------------------------------------|
A----7-------0h3----5--------------------------------------------|
B----5-------0h1----3--------------------------------------------|
    |_let ring_______|

Ok any problems E-mail me at 
spikez40@hotmail.com

Laterz 
Spikez
Comments