Cypress Hill - Hits From The Bong Chords & Tabs

 

Hits From The Bong Chords & Tabs

Cypress Hill Chords & Tabs

Version: 3 Type: Bass Tab 0 ratings
1 star 2 stars 3 stars 4 stars 5 stars
comments

Hits From The Bong Bass Tab

Hits from the Bong - Cypress Hill

By: Jon Craven (i_apathy@hotmail.com)
For questions, comments, feedback, an outline of the timing, write the above
address.

Note:
  -The tempo seems between 92 and 93 bpm; using a metrinome, you'll notice it seems off.

(4/4)(93 bpm)
Standard tuning

* - note held for an eighth beat
|-R-| - rest for one measure

Intro (chorus//outro): (x4)(0:03)
|----------------|----------------|
|----------------|----------------|
|----------------|--------------56|
|0-*-*-*-*-*-*-*-|0-*-*-*-0-5-7---|

Verse 1: (0:24)
|----------------|----------------|----------------|---|----------------|
|----------------|----------------|----------------|---|----------------|
|----------------|--------------56|----------------|---|----------------|
|0-*-*-*-*-*-*-*-|0-*-*-*-0-5-7---|0-*-*-*-*-*-*-*-|-R-|0-*-*-*-*-*-*-*-|

|----------------|----------------|----------------|----------------|
|----------------|----------------|----------------|----------------|
|--------------56|----------------|--------------56|----------------|
|0-*-*-*-0-5-7---|0-*-*-*-*-*-*-*-|0-*-*-*-0-5-7---|0-*-*-*-*-*-*-*-|
[ Tab from: http://www.guitartabs.cc/tabs/c/cypress_hill/hits_from_the_bong_btab_ver_3.html ]
|----------------|----------------|----------------|
|----------------|----------------|----------------|
|--------------56|----------------|--------------56|
|0-*-*-*-0-5-7---|0-*-*-*-*-*-*-*-|0-*-*-*-0-5-7---|

Chorus (x4)

Verse 2: (1:21)
|----------------|----------------|----------------|---|----------------|
|----------------|----------------|----------------|---|----------------|
|----------------|--------------56|----------------|---|----------------|
|0-*-*-*-*-*-*-*-|0-*-*-*-0-5-7---|0-*-*-*-*-*-*-*-|-R-|0-*-*-*-*-*-*-*-|

|----------------|----------------|----------------|----------------|
|----------------|----------------|----------------|----------------|
|--------------56|----------------|--------------56|----------------|
|0-*-*-*-0-5-7---|0-*-*-*-*-*-*-*-|0-*-*-*-0-5-7---|0-*-*-*-*-*-*-*-|

|----------------|----------------|----------------|----------------|
|----------------|----------------|----------------|----------------|
|--------------56|----------------|--------------56|----------------|
|0-*-*-*-0-5-7---|0-*-*-*-*-*-*-*-|0-*-*-*-0-5-7---|0-*-*-*-*-*-*-*-|

|----------------|----------------|----------------|
|----------------|----------------|----------------|
|--------------56|----------------|--------------56|
|0-*-*-*-0-5-7---|0-*-*-*-*-*-*-*-|0-*-*-*-0-5-7---|

Outro (x7)
Rest till end
Comments