Cypress Hill - Cock The Hammer Chords & Tabs

 

Cock The Hammer Chords & Tabs

Cypress Hill Chords & Tabs

Version: 1 Type: Bass Tab 0 ratings
1 star 2 stars 3 stars 4 stars 5 stars
comments

Cock The Hammer Bass Tab

Cock the Hammer - Cypress Hill

By: Jon Craven (i_apathy@hotmail.com)
For questions, comments, feedback, an outline of the timing, write the above
address.

Note:
  -This song sounds as if it was played on a stand up bass.

(4/4)(99 bpm)
Tuned two and a half steps down (low to high: B E A D)

* - note held for an eighth beat
|-R-| - rest for one measure

Intro pt.1: (0:09)
|----------------|----------------|----------------|----------------|
|--------6-5-----|------6-5-*-*---|------6-5-*-*---|------6-5-*-*---|
|8-5-7-8-------88|--5-7---------88|--5-7---------88|--5-7---------88|
|----------------|0---------------|0---------------|0---------------|

Intro pt.2 (verse 1/chorus/outro): (x4)(0:19)
|----------------|
|------6-5-*-*---|
|--5-7---------88|
|0---------------|

Verse 1 (x16)
Chorus (x8)

Verse 2: (1:27)
|----------------|----------------|----------------|----------------|
|------6-5-*-*---|------6-5-*-*---|------6-5-*-*---|------6-5-*-*---|
|--5-7---------88|--5-7---------88|--5-7---------88|--5-7---------88|
|0---------------|0---------------|0---------------|0---------------|
[ Tab from: http://www.guitartabs.cc/tabs/c/cypress_hill/cock_the_hammer_btab.html ]
|----------------|----------------|---|---|----------------|----------------|
|------6-5-*-*---|------6-5-*-*---|---|---|------6-5-*-*---|------6-5-*-*---|
|--5-7---------88|--5-7---------88|-R-|-R-|--5-7---------88|--5-7---------88|
|0---------------|0---------------|---|---|0---------------|0---------------|

|----------------|----------------|----------------|----------------|
|------6-5-*-*---|------6-5-*-*---|------6-5-*-*---|------6-5-*-*---|
|--5-7---------88|--5-7---------88|--5-7---------88|--5-7---------88|
|0---------------|0---------------|0---------------|0---------------|

|----------------|----------------|----------------|----------------|
|------6-5-*-*---|------6-5-*-*---|------6-5-*-*---|------6-5-*-*---|
|--5-7---------88|--5-7---------88|--5-7---------88|--5-7---------88|
|0---------------|0---------------|0---------------|0---------------|

|----------------|----------------|----------------|----------------|
|------6-5-*-*---|------6-5-*-*---|------6-5-*-*---|------6-5-*-*---|
|--5-7---------88|--5-7---------88|--5-7---------88|--5-7---------88|
|0---------------|0---------------|0---------------|0---------------|

Chorus (x8)
Outro (x26)(fades on 22nd repeat)
Rest till end
Comments