Cypress Hill - Cant Get The Best Of Me Chords & Tabs

 

Cant Get The Best Of Me Chords & Tabs

Cypress Hill Chords & Tabs

Version: 1 Type: Tab

Cant Get The Best Of Me Tab

   
Artist:Cypress Hill
Song:Can't get the best of me
Album: Skull & Bones
Transcribed by: Trevor Hanna

     I've never submitted a tab before or tried to figure out one in
it's entirety.  This songs pretty simple and i've got the verse and
chorus pretty well done. I'm not too sure about the riffs but this
should get you on your way.  I'm not too big a fan of the whole
rap/metal scene but this song's wicked.

Verse:
The verse is quite simply C#5 palm muted which is played as so:

e|------------------|---------------|
b|------------------|---------------|
g|------------------|---------------|
d|-6-6--6-6-6--6-6-6|6--6-6-6--6-6-6|
a|-4-4--4-4-4--4-4-4|4--4-4-4--4-4-4|
e|------------------|---------------|
[ Tab from: http://www.guitartabs.cc/tabs/c/cypress_hill/cant_get_the_best_of_me_tab.html ]
Chorus:The chorus is C#5 and a high E5(x799xxx)thm similar to the
       verse but too much work to tab out

Verse 3:  The third verse is two riffs, and the second one continues
        into the final chorus

Riff1:
e|-------------------------|
b|-------------------------|
g|----------------------4h6|
d|-------------------4h6---|
a|4-4--4-4-4--4-4-4--------|
e|-------------------------|
 |pm---------------|

Riff2:
e|----------|
b|----------|
g|----------|
d|-----5p4p0|
a|-4-4------|
e|----------|

Final chorus: Riff 2 is played over the C#5 and this is played over
the E5

e|----------|
b|----------|
g|-----3p2p0|
d|-2-2------|
a|----------|
e|----------|

So that's it. Please e-mail me if you have any comments or suggestions.

tommy 

coolsigge@hotmail.com