Cymbals Eat Guitars - Shore Points Chords & Tabs

 

Shore Points Chords & Tabs

Cymbals Eat Guitars Chords & Tabs

Version: 4 Type: Tab 0 ratings
1 star 2 stars 3 stars 4 stars 5 stars
comments

Shore Points Tab

   
-------------------------------------------------------------------------------
                     SHORE POINTS - Cymbals Eat Guitars
-------------------------------------------------------------------------------
Tabbed by: A.J. Conner
E-mail: ajconner123@gmail.com

Tuning: Standard, Capo 2nd fret (ALL FRET NUMBERS RELATIVE TO CAPO)

  Main Riff
e|---------------------------------------------------------------------------|
B|--------1---0-------------------0-------3---0------------------------------|
G|------0-------0---------6-----6-------0-------0---------2-----2/4-0--------|
D|----2-----------0-----5-----5-------2-----------0-----1-----1--------------|
A|--------------------4-------------3-----------------0----------------------|
E|--3-------3-------5-------5----------------3------2-------2----------------|

 Main Riff (cont.)
e|----------------------------------------0----------------------------------|
B|--------1---0-------------------2-----2------------------------------------|
G|------0-------0---------2-----0-----0--------------------------------------|
D|----2-----------0-----1-----1----------------------------------------------|
A|--------------------0------------------------------------------------------|
E|--3-------3-------2-------2-------2----------------------------------------|

Repeat the Main Riff for the verse. Then, play this other stuff:
                                   
e|-------------------------------|-------------------------------------------|
B|-------------------------------|o-----------------------------------------o|
G|-------------------------------|---999-7-7--5-55-555-----------------------|
D|-------------------------------|o--xxx-x-x--x-xx-xxx----------------------o|
A|----5----4----3----2--2h3p2----|---xxx-x-x--x-xx-xxx-----------------------|
E|--3----3----3----3----------3/-|---888-7-7--5-55-555-----------------------|
                                        ^^Repeat this bit twice

e|------------------------------------0----------0-0---------0--------0-0--0-|
B|------------------------------------0----------0-0---------0--------0-0--0-|
G|--999-7-7--6-66-666--999-7-7-999999-0----------0-0---------0--------0-0--0-|
D|--xxx-x-x--x-xx-xxx--xxx-x-x-xxxxxx-5----------5-5---------5--------5-5--5-|
A|--xxx-x-x--x-xx-xxx--xxx-x-x-xxxxxx-7----------4-4---------7--------4-4--4-|
E|--888-7-7--5-55-555--888-7-7-999999-0----------5-5---------0--------5-5--5-|
   "...a submerged car, a snowbanked lane."   "The smoke..."    "Refineries.."
[ Tab from: http://www.guitartabs.cc/tabs/c/cymbals_eat_guitars/shore_points_tab_ver_4.html ]
e|--0-0---0-0-0-0-0-0-0-0-0--------0-------0--------0-------0----------------|
B|--1-1---1-3-3-3-3-3-3-3-3------5-------5--------5-------5------------------|
G|--0-0---0-0-0-0-0-0-0-0-0----0-------0--------0-------0--------------------|
D|--2-2---2-4-4-4-4-4-4-4-4--------------------------------------------------|
A|--3-3---3-5-5-5-5-5-5-5-5--------------------------------------------------|
E|--3-3---3-5-5-5-5-5-5-5-5--0-------0--------0-------0----------------------|
"Elizabeth's smog..."

e|--------0-------0-------0-------0------------------------------------------|
B|------5-------5-------5-------5--------------------------------------------|
G|----0-------0-------0-------0----------------------------------------------|
D|---------------------------------------------------------------------------|
A|---------------------------------------------------------------------------|
E|--4-------3-------4-------3------------------------------------------------|

Back into the Main Riff, build up the last notes of the Main Riff by repeating
them, then play this little Ending Riff:

e|---------------------------------------------------------------------------|
B|-----------8---------------------------------------------------------------|
G|----9----7-------------------------------7---9-7---------------------------|
D|-------------7/10-9\-5-----5-----5-7-7/9---9-----9-------------------------|
A|-------------------------3---3-2-------------------------------------------|
E|--8----7-------------------------------------------------------------------|

e|-------------------------------------------|-------------------------------|
B|-----------8-------------------------------|o-----------------------------o|                     
G|----9----7---------------------------------|---999-7-7--5-55-555-----------|
D|-------------7/10-9\-5-----5-----5---------|o--xxx-x-x--x-xx-xxx----------o|
A|-------------------------3---3-2---2-------|---xxx-x-x--x-xx-xxx-----------|
E|--8----7-----------------------------5--7--|---888-7-7--5-55-555-----------|
                                                    ^^Repeat this bit thrice


e|---------------------------------------------------------------------------|
B|---------------------------------------------------------------------------|
G|--999-7-7-999999-----------------------------------------------------------|
D|--xxx-x-x-xxxxxx-----------------------------------------------------------|
A|--xxx-x-x-xxxxxx-----------------------------------------------------------|
E|--888-7-7-999999-----------------------------------------------------------|

Play the Ending Riff again, only this time end it (and the song) with:

e|---------------------------------------------------------------------------|
B|---------------------------------------------------------------------------|
G|---------------------------------------------------------------------------|
D|--0------------------------------------------------------------------------|
A|--4------------------------------------------------------------------------|
E|--5------------------------------------------------------------------------|

Something like that.
Please comment or email if you have any corrections, they are highly valued.
Thanks and enjoy!
-AJC

************************************

| /   slide up
| \   slide down
| h   hammer-on
| p   pull-off
| x   Mute note

************************************
Comments