Cymbals Eat Guitars - Cold Spring Chords & Tabs

 

Cold Spring Chords & Tabs

Cymbals Eat Guitars Chords & Tabs

Version: 2 Type: Bass Tab 0 ratings
1 star 2 stars 3 stars 4 stars 5 stars
comments

Cold Spring Bass Tab

cold spring by cymbals eat guitars
http://cymbalseatguitars.com/
/ = slide 


right after "...to see a halloween parade"
G|---------------------------------------|
D|0--0----0--0-0000---------------------0|
A|----0--0---------2-----2--2-0-2-0-2-4--|
E|-------------------2-2-----------------|  x3

"march 'em down to riverside square..."
G|--------00000000-------------------------|
D|22222222---------222222222--2--2--2--2222|
A|-----------------------------------------|
E|-----------------------------------------| 

"...way home"
G|0--0-0--0-0--0-0------------------------|
D|--------------------0--0-0-0-2--22222222| x3 
A|----------------------------------------|
E|----------------------------------------|

"antiphonal stridency..." 
G|0--0-0--0-0--0-0------------------------|
D|--------------------0--0-0-0-2--222220--| 
A|--------------------------------------20|
E|----------------------------------------|


"and where are you?"
G|0--0-0--0-0--0-0----------|
D|--------------------------| 
A|--------------------------|
E|--------------------------|

"as lives are punctuated by moons"
G|-----------------------------------|
D|------0-2-0-------5-5-5-5-4-2-0----| 
A|2-2-4-------4-0-----------------2--|
E|----------------3------------------| x8 end on  D
[ Tab from: http://www.guitartabs.cc/tabs/c/cymbals_eat_guitars/cold_spring_btab_ver_2.html ]
"i never loved you more than when you said..."
G|--------------------------------|
D|-----------------00--00--00--00-|
A|-22--22--22--22-----------------|
E|--------------------------------| x6


G|--------------------------------|
D|--------------------------------|
A|-22--22--22--22---5/--5/--------|
E|----------------------------3---|

right after "I'M BEAR MOUNTAIN I AM ENTERING ORBITTTTT" 
G|-------------------------------------------------------------------|
D|-------------------------------------------------------------------|
A|------------------------------------5/17-17--5/17-17--5/17-17-19-17|
E|-3/15-15--3/15-15--3/15-15--3/15-15-----------------------------19-|


G|----------------------------------------------------------------------|
D|----------------------------------------------------------------------|
A|------------------------------------5/17-17--5/17-17--5/17-17-19-19-17|
E|-3/15-15--3/15-15--3/15-15--3/15-15-----------------------------------|


G|-------------------------------------------------------------------|
D|-------------------------------------------------------------------|
A|------------------------------------5/17-17--5/17-17--5/17-17-19-17|
E|-3/15-15--3/15-15--3/15-15--3/15-15-----------------------------19-| x2



G|-----------|
D|-2220------| 
A|-----20----|
E|-----------|

G|0-0--0-0-0--0-0-0--0-0-0-0-2-------------------|
D|----------------------------0-0--00000--22220--| x7
A|---------------------------------------------20|
E|-----------------------------------------------|
 end on g
 
Comments