Cutting Crew - I Just Died In Your Arms Tonight Chords & Tabs

 

I Just Died In Your Arms Tonight Chords & Tabs

Cutting Crew Chords & Tabs

Version: 1 Type: Tab 0 ratings
1 star 2 stars 3 stars 4 stars 5 stars
comments

I Just Died In Your Arms Tonight Tab

#----------------------------------PLEASE NOTE---------------------------------#
#This file is the author's own work and represents their interpretation of the #
#song. You may only use this file for private study, scholarship, or research. #
#------------------------------------------------------------------------------#

I Just Died In Your Arms Tonight

Words & Music by Nick Eede
As recorded by Cutting Crew

Keyboards arranged for Guitar
Transcription by John Oberg ( john@two-for-flinching.com )
http://two-for-flinching.com

Moderate rock

********************************************************************************
  Guitar 2 (All Palm Muted)
  [Repeat 2x                       ...
E|--------------------------------|--------------------------------|
B|7---7---7---7---7---7---7---7---|10--10--10--8---8---8---7---7---|
G|7---7---7---7---7---7---7---7---|9---9---9---9---9---9---9---9---|
D|9---9---9---9---9---9---9---9---|--------------------------------|
A|--------------------------------|--------------------------------|
E|--------------------------------|--------------------------------|
  1   &   2   &   3   &   4   &    1   &   2   &   3   &   4   &

********************************************************************************

  ...                              ...                            ]
E|--------------------------------|--------------------------------|
B|5---5---5---5---5---5---5---5---|7---7---7-----------------------|
G|6---6---6---6---6---6---6---6---|6---6---6---6---6---6---6---6---|
D|9---9---9---7---7---7---7---7---|7---7---7---7---7---7---7---7---|
A|--------------------------------|------------9---9---9---9---9---|
E|--------------------------------|--------------------------------|
  1   &   2   &   3   &   4   &    1   &   2   &   3   &   4   &

********************************************************************************


E|--------------------------------|--------------------------------|
B|7---7---7---7---7---7---7---7---|7---7---7---7---7---7---7---7---|
G|7---7---7---7---7---7---7---7---|9---9---9---9---9---9---9---9---|
D|9---9---9---9---9---9---9---9---|9---9---9---9---9---9---9---9---|
A|--------------------------------|--------------------------------|
E|--------------------------------|--------------------------------|
  1   &   2   &   3   &   4   &    1   &   2   &   3   &   4   &

********************************************************************************


E|--------------------------------|--------------------------------|
B|5---5---5---5---5---5---5---5---|2---2---2---2---2---2---2---2---|
G|7---7---7---6---6---6---6---6---|2---2---2---2---2---2---2---2---|
D|7---7---7---7---7---7---7---7---|4---4---4---4---4---4---4---4---|
A|--------------------------------|--------------------------------|
E|--------------------------------|--------------------------------|
  1   &   2   &   3   &   4   &    1   &   2   &   3   &   4   &

********************************************************************************


E|--------------------------------|--------------------------------|
B|7---7---7---7---7---7---7---7---|7---7---7---7---7---7---7---7---|
G|7---7---7---7---7---7---7---7---|9---9---9---7---7---7---7---7---|
D|9---9---9---9---9---9---9---9---|9---9---9---9---9---9---9---9---|
A|--------------------------------|--------------------------------|
E|--------------------------------|--------------------------------|
  1   &   2   &   3   &   4   &    1   &   2   &   3   &   4   &

********************************************************************************


E|--------------------------------|5-------------------------------|
B|5---5---5---5---5---5---5---5---|7-------------------------------|
G|7---7---7---6---6---6---6---6---|6-------------------------------|
D|7---7---7---7---7---7---7---7---|7-------------------------------|
A|--------------------------------|--------------------------------|
E|--------------------------------|--------------------------------|
  1   &   2   &   3   &   4   &    1   &   2   &   3   &   4   &

********************************************************************************


E|2-------|--------|2-------|--------|
B|3-------|--------|3-------|--------|
G|4-------|--------|4-------|--------|
D|4-------|--------|4-------|--------|
A|--------|--------|--------|--------|
E|--------|--------|--------|--------|
  1 2 3 4  1 2 3 4  1 2 3 4  1 2 3 4

********************************************************************************
  Verse 1 - Let Ring
  [Repeat 2x        ...               ...                               ...             ]  
E|2-------|--------|5-------|--------|0-----0-------0-|------0---------|2-------|--------|
B|3-------|--------|3-------|--------|5-----5-------3-|------2---------|2-------|--------|
G|4-------|--------|4-------|--------|7-----6-------4-|------2---------|2-------|--------|
D|4-------|--------|5-------|--------|7-----7-------4-|------2---------|4-------|--------|
A|--------|--------|--------|--------|----------------|----------------|--------|--------|
E|--------|--------|--------|--------|----------------|----------------|--------|--------|
  1 2 3 4  1 2 3 4  1 2 3 4  1 2 3 4  1 & 2 & 3 & 4 &  1 & 2 & 3 & 4 &  1 2 3 4  1 2 3 4

********************************************************************************
  Chorus 1 - Let Ring
  [Repeat 4x                ...             ]
E|--------|7-----7---------|5-------|2-------|
B|--------|7-----10--------|5-------|2-------|
G|7-------|9-----7---------|6-------|2-------|
D|9-------|9-----9---------|7-------|4-------|
A|9-------|----------------|7-------|4-------|
E|7-------|----------------|5-------|2-------|
  1 2 3 4  1 & 2 & 3 & 4 &  1 2 3 4  1 2 3 4

********************************************************************************


E|5-------|--------|2-------|--------|2-------|--------|
B|3-------|--------|3-------|--------|3-------|--------|
G|4-------|--------|4-------|--------|4-------|--------|
D|5-------|--------|4-------|--------|4-------|--------|
A|--------|--------|--------|--------|--------|--------|
E|--------|--------|--------|--------|--------|--------|
  1 2 3 4  1 2 3 4  1 2 3 4  1 2 3 4  1 2 3 4  1 2 3 4

********************************************************************************
  Verse 2 - Let Ring
  [Repeat 2x...        ...                              ...     ]  
E|2---|----|5---|----|0-----0-------0-|------0---------|2---|----|
B|3---|----|3---|----|5-----5-------3-|------2---------|2---|----|
G|4---|----|4---|----|7-----6-------4-|------2---------|2---|----|
D|4---|----|5---|----|7-----7-------4-|------2---------|4---|----|
A|----|----|----|----|----------------|----------------|----|----|
E|----|----|----|----|----------------|----------------|----|----|
  1234 1234 1234 1234 1 & 2 & 3 & 4 &  1 & 2 & 3 & 4 &  1234 1234

********************************************************************************
  Chorus 2 - Let Ring
  [Repeat 4x                ...             ]
E|--------|7-----7---------|5-------|2-------|
B|--------|7-----10--------|5-------|2-------|
G|7-------|9-----7---------|6-------|2-------|
D|9-------|9-----9---------|7-------|4-------|
A|9-------|----------------|7-------|4-------|
E|7-------|----------------|5-------|2-------|
  1 2 3 4  1 & 2 & 3 & 4 &  1 2 3 4  1 2 3 4

********************************************************************************
  Bridge - Let Ring
[ Tab from: http://www.guitartabs.cc/tabs/c/cutting_crew/i_just_died_in_your_arms_tonight_tab.html ]
E|2---|----|5---|----|10--10--10--10--|10--10--10--10--|----------------|------2---------|
B|3---|----|3---|----|10--10--10--10--|10--10--10--10--|2-----3--------2|------2---------|
G|4---|----|4---|----|12--12--12--12--|12--12--12--12--|3-----4--------3|------3---------|
D|4---|----|5---|----|12--12--12--12--|12--12--12--12--|4-----5--------4|------4---------|
A|----|----|----|----|----------------|----------------|----------------|----------------|
E|----|----|----|----|----------------|----------------|----------------|----------------|
  1234 1234 1234 1234 1 & 2 & 3 & 4 &  1 & 2 & 3 & 4 &  1 & 2 & 3 & 4 &  1 & 2 & 3 & 4 &

********************************************************************************
Solo

E|2---|----------------|5---|2---|2---|----------------|----------------|2---|
B|3---|----------------|5---|2---|3---|----------------|----------------|2---|
G|4---|----------------|6---|2---|4---|----------------|----------------|2---|
D|4---|7-----5-----4---|7---|4---|4---|7-----5-----4---|----------------|4---|
A|2---|----------------|7---|4---|2---|--------------7-|--2/4-7---------|4---|
E|----|----------------|5---|2---|----|----------------|--------7\5-----|2---|
  1234 1 & 2 & 3 & 4 &  1234 1234 1234 1 & 2 & 3 & 4 &  1 & 2 & 3 & 4 &  1234
********************************************************************************
  Reprise - Lightly Palm Muted

E|--------------------------------|--------------------------------|
B|7---7---7---7---7---7---7---7---|7---7---7---7---7---7---7---7---|
G|7---7---7---7---7---7---7---7---|9---9---9---9---9---9---9---9---|
D|9---9---9---9---9---9---9---9---|9---9---9---9---9---9---9---9---|
A|--------------------------------|--------------------------------|
E|--------------------------------|--------------------------------|
  1   &   2   &   3   &   4   &    1   &   2   &   3   &   4   &

********************************************************************************


E|--------------------------------|--------------------------------|
B|5---5---5---5---5---5---5---5---|7---7---7-----------------------|
G|6---6---6---6---6---6---6---6---|6---6---6---6---6---6---6---6---|
D|9---9---9---7---7---7---7---7---|7---7---7---7---7---7---7---7---|
A|--------------------------------|------------9---9---9---9---9---|
E|--------------------------------|--------------------------------|
  1   &   2   &   3   &   4   &    1   &   2   &   3   &   4   &

********************************************************************************


E|--------------------------------|--------------------------------|
B|7---7---7---7---7---7---7---7---|7---7---7---7---7---7---7---7---|
G|7---7---7---7---7---7---7---7---|9---9---9---9---9---9---9---9---|
D|9---9---9---9---9---9---9---9---|9---9---9---9---9---9---9---9---|
A|--------------------------------|--------------------------------|
E|--------------------------------|--------------------------------|
  1   &   2   &   3   &   4   &    1   &   2   &   3   &   4   &

********************************************************************************
                                   Let Ring

E|--------------------------------|14--14--14--14--14--14--14--14--|
B|5---5---5---5---5---5---5---5---|14--14--14--14--14--14--14--14--|
G|7---7---7---6---6---6---6---6---|14--14--14--14--14--14--14--14--|
D|7---7---7---7---7---7---7---7---|16--16--16--16--16--16--16--16--|
A|--------------------------------|--------------------------------|
E|--------------------------------|--------------------------------|
  1   &   2   &   3   &   4   &    1   &   2   &   3   &   4   &

********************************************************************************
  Chorus 3
  [Repeat 4x                ...             ]
E|--------|7-----7---------|5-------|2-------|
B|--------|7-----10--------|5-------|2-------|
G|7-------|9-----7---------|6-------|2-------|
D|9-------|9-----9---------|7-------|4-------|
A|9-------|----------------|7-------|4-------|
E|7-------|----------------|5-------|2-------|
  1 2 3 4  1 & 2 & 3 & 4 &  1 2 3 4  1 2 3 4

********************************************************************************
  Harmony Solo Out
  [Repeat 2x                        ...
E|----------------|----------------|----------------|----------------|
B|----------------|78--8---8-7-----|----------------|--------7-------|
G|6-/-7-----------|--------------7/|9---------------|----------9-7-7\|
D|----------------|----------------|----------------|----------------|
A|----------------|----------------|----------------|----------------|
E|----------------|----------------|----------------|----------------|
  1 & 2 & 3 & 4 &  1 & 2 & 3 & 4 &  1 & 2 & 3 & 4 &  1 & 2 & 3 & 4 &

********************************************************************************

  ...                               ...                             ]
E|----------------|----------------|----------------|----------------|
B|----------------|78--8---8-7-----|----------------|----------------|
G|-\6-------------|--------------7/|9---------------|----------------|
D|----9-----------|----------------|----------------|----------------|
A|----------------|----------------|----------------|----------------|
E|----------------|----------------|----------------|----------------|
  1 & 2 & 3 & 4 &  1 & 2 & 3 & 4 &  1 & 2 & 3 & 4 &  1 & 2 & 3 & 4 &

********************************************************************************
Solo Out

E|--------------------------------|--------------------------------|
B|7---7---7---7---7---7---7---7---|7---7---7---7---7---7---7---7---|
G|7---7---7---7---7---7---7---7---|9---9---9---9---9---9---9---9---|
D|9---9---9---9---9---9---9---9---|9---9---9---9---9---9---9---9---|
A|--------------------------------|--------------------------------|
E|--------------------------------|--------------------------------|
  1   &   2   &   3   &   4   &    1   &   2   &   3   &   4   &

********************************************************************************


E|--------------------------------|--------------------------------|
B|5---5---5---5---5---5---5---5---|2---2---2---2---2---2---2---2---|
G|7---7---7---6---6---6---6---6---|2---2---2---2---2---2---2---2---|
D|7---7---7---7---7---7---7---7---|4---4---4---4---4---4---4---4---|
A|--------------------------------|--------------------------------|
E|--------------------------------|--------------------------------|
  1   &   2   &   3   &   4   &    1   &   2   &   3   &   4   &

********************************************************************************


E|--------------------------------|7---7---7---7---7---7---7---7---|
B|7---7---7---7---7---7---7---7---|10--10--10--8---8---8---7---7---|
G|7---7---7---7---7---7---7---7---|9---9---9---9---9---9---9---9---|
D|9---9---9---9---9---9---9---9---|--------------------------------|
A|--------------------------------|--------------------------------|
E|--------------------------------|--------------------------------|
  1   &   2   &   3   &   4   &    1   &   2   &   3   &   4   &

********************************************************************************


E|--------------------------------|--------------------------------|
B|5---5---5---5---5---5---5---5---|2---2---2---2---2---2---2---2---|
G|7---7---7---6---6---6---6---6---|2---2---2---2---2---2---2---2---|
D|7---7---7---7---7---7---7---7---|4---4---4---4---4---4---4---4---|
A|--------------------------------|--------------------------------|
E|--------------------------------|--------------------------------|
  1   &   2   &   3   &   4   &    1   &   2   &   3   &   4   &

********************************************************************************


E|--------------------------------|
B|2---2---2---2---2---2---2---2---|
G|2---2---2---2---2---2---2---2---|
D|4---4---4---4---4---4---4---4---|
A|--------------------------------|
E|--------------------------------|
  1   &   2   &   3   &   4   &
Comments