Cursive - Shallow Means Deep Ends Chords & Tabs

 

Shallow Means Deep Ends Chords & Tabs

Cursive Chords & Tabs

Version: 1 Type: Bass Tab 0 ratings
1 star 2 stars 3 stars 4 stars 5 stars
comments

Shallow Means Deep Ends Bass Tab

Credit: Tim

I haven't really finished either of these but I have main riffs for both of these songs.
And I've never tabbed on here before so I don't really know if there's a trick to it.
Sorry if it's fucked up. 

Shallow Means, Deep Ends

Main Riff(He plays this almost the entire song.. just occassionally at different rhythms)
G|----------------------------------|
D|----------------------------------|
A|--------5----------5-3---5--------|
E|---3--3--3-3---3-5-----5----------|
[ Tab from: http://www.guitartabs.cc/tabs/c/cursive/shallow_means_deep_ends_btab.html ]
For the Chorus you can do a few things.. I'm not sure exactly what Matt is doing but I
play a few things that sound good.. for the first chords just hit low G(3rd fret E)..
I usually either slide up to D(10th fret E), or go on the A string and slide to it's
octave(12th fret A) Or just mess around with the notes from the main riff. Pretty easy
riff to improvise with.

Now for my favorite part("We finally hit bottom!!")..

1st time through play: 
G|---------------------------|-----------|
D|---------------------------|-----------|
A|---------------33-3-33-3-3-|-----------|
E|--11-1-1-11--1-------------|3>>>>------|
2nd time play first part, instead of all those Gs go back to the chorus

After the final chorus play the main riff until the tiny
pointless-to-tab-but-I'll-do-it-anyway-incase-you-are-dumb outro:
G|----------------------------|
D|----------------------------|
A|-------5--------------------|
E|--3--3---3--3---------------|

So there's that half-assed tab in a nutshell.. very cool song.
Comments