Cursive - Recluse Chords & Tabs

 

Recluse Chords & Tabs

Cursive Chords & Tabs

Version: 1 Type: Bass Tab 0 ratings
1 star 2 stars 3 stars 4 stars 5 stars
comments

Recluse Bass Tab

cursive - 'the recluse'
tabbed by; reed mincey
(bass)


intro/main part:
G:----5h7----------------5h7---------5-|
D:--------8p7----------5-----8p7---7---|
A:--6---------5-8----------------8-----|
E:----------------8-6------------------| (x2)


first part of verse: no bass (x2)


second part of verse:
G:--8p7h8--7h8-10-7-----------10h12p10--10--|
D:------------------------------------------|
A:------------------------------------------|
E:-------------------6-6-3------------------| (x2)

[ Tab from: http://www.guitartabs.cc/tabs/c/cursive/recluse_btab.html ]
after verse/small bridge (oh christ, i'm not that desperate.....)
G:-------------------|
D:-------------------|
A:--6-5------6-5--10-|
E:------3-1----------| (x1)


ending:
G:----5h7----------------|
D:--------8p7------------|
A:--6---------5-8--------|
E:----------------8-6--3-|


order:
intro...      (x2)
first part... (x2)
second part...(x2)
bridge...     (x1)
intro...      (x2)
first part... (x2)
second part...(x2)
bridge...     (x1)
intro...      (x2)
first part... (x2)
intro...      (x2)
ending...
Comments