Cursive - Art Is Hard Chords & Tabs

 

Art Is Hard Chords & Tabs

Cursive Chords & Tabs

Version: 2 Type: Tab 0 ratings
1 star 2 stars 3 stars 4 stars 5 stars
comments

Art Is Hard Tab

   
I like what was submitted so far, I just have a few more flares to add, play along 
& use what you'd like!

intro
e|---------------------------|
b|---------------------------|
g|--------3-3p2--------------|
d|-5-5-55-------5-5-55-5-5h7-| (2x)
a|-5-5-55-------5-5-55-------|
E|-3-3-33-------3-3-33-------|

Verse
e|---------------------------------|
b|---------------------------------|
g|---------8-8-888-----------------|
d|-5-5-555-8-8-888-8-8-888-7-7-777-|
a|-5-5-555-6-6-666-8-8-888-5-5-555-|
E|-3-3-333---------6-6-666---------|

Bridge
e|---------------|      |---------------| 
b|---------------|      |---------------|
g|---------------|      |---------------|
d|-5p4-5p4-5p4h5-| (2x) |-5h7-5h7-5h7p5-| (2x)
a|-5-------------|      |---------------|
E|-3-------------|      |---------------|
   And that CD sells      yeah what a hit...
[ Tab from: http://www.guitartabs.cc/tabs/c/cursive/art_is_hard_tab_ver_2.html ]
Chorus
e|---------------------------------|  
b|---------------------------------|  
g|-8-8-888-7-7-777---------7-7-777-|  
d|-8-8-888-7-7-777-8-8-888-7-7-777-| 
a|-6-6-666-5-5-555-8-8-888-5-5-555-|  
E|-----------------6-6-666---------|  
   If at first you don't succeed...

e|---------------------------------------------|
b|---------------------------------------------|
g|-8888888888-7777777777------------7777777777-|
d|-8888888888-7777777777-8888888888-7777777777-|
a|-6666666666-5555555555-8888888888-5555555555-|
E|-----------------------6666666666------------|
   Try and fail and try again...

Intro

Verse 

Bridge

Solo
e|---------------------------------------------------------| 
b|---------------------------------------------------------|
g|---------------3p2-3p2-3p2h3-5p3-5p3-5p3h5-7p5-7p5-7p5h7-|
d|-5h7-5h7-5h7p5-------------------------------------------| 
a|---------------------------------------------------------|
E|---------------------------------------------------------|

Chorus

End with:
e|-----|     
b|-----|    
g|-8-8-|      
d|-8-8-| 
a|-6-6-|     
E|-----|  
   Hey, hey

then the solo
Comments