Cure - Why Cant I Be You Chords & Tabs

 

Why Cant I Be You Chords & Tabs

Cure Chords & Tabs

Version: 1 Type: Bass Tab 0 ratings
1 star 2 stars 3 stars 4 stars 5 stars
comments

Why Cant I Be You Bass Tab

ONE OF MY FAVOURITE CURE SONGS FROM THE ALBUM 'KISS ME KISS ME' (1987, THE YEAR I WAS BORN!!)

INTRO/VERSE

G--------------------------------------------
D--------------------------------------------
A5-5-5-5-5-5-5-------------------------------
E-------------5-5-5-5-5-3-3-3----------------

CHORUS
[ Tab from: http://www.guitartabs.cc/tabs/c/cure/why_cant_i_be_you_btab.html ]
G--------------------------------------------
D--------------------------------------------
A---------------7-7-7-7-7-7-7-7--------------
E5-5-5-5-5-5-5-5-----------------------------



THATS IT! ITS A PRETTY SIMPLE SONG.

UM, I'VE ONLY BEEN PLAYING FOR A FEW MONTHS, I'VE NEVER HAD A LESSON AND THIS
IS MY FIRST TAB SO DONT SHOUT AT ME IF IT IS WRONG.
                                  ENJOY!
                                     PEACE!!!!

TABBED BY: ASHLEY
Comments