Cure - Untitled Chords & Tabs

 

Untitled Chords & Tabs

Cure Chords & Tabs

Version: 2 Type: Tab 0 ratings
1 star 2 stars 3 stars 4 stars 5 stars
comments

Untitled Tab

The cure
Untitled
Disintegration


|-------------------------------------------------------------------------------------|
|-------------------------------------------------------------------------------------|
|-------------------------------------------------------------------------------------|
|--19-17-16-------------19-17-16-------19-17-16--------------------16-17-16-----------|
|-----------17-17/19-19----------17-19----------17-17/19-19--17-19----------17-14-19--|
|-------------------------------------------------------------------------------------|
This is played through most of the song
[ Tab from: http://www.guitartabs.cc/tabs/c/cure/untitled_tab_ver_2.html ]
|---------------------|
|---------------------|
|---------------------|
|--19-19-19-19-17-16--|
|---------------------|
|---------------------|
At the end random pieces of guitaring comes in like the above, played a couple of times.

|---------------------|
|---------------------|
|---------------------|
|---------------------|
|--17-17-17-17-19-17--|
|---------------------|
This is played about twice

|---------------------------------------------------------------------|
|---------------------------------------------------------------------|
|---------------------------------------------------------------------|
|--19-19-19-19--19-19-17-16-16--19-17-16-16--19-17-16-17-16-----------|
|-----------------------------------------------------------17-17-17--|
|---------------------------------------------------------------------|

That's near enough the whole song, the end is quite a hard bit to tab because there are
loads of layers of guitaring. Any corrections or whatever email me or add me to
msn...hardpunx@msn.com
Comments