Cure - Untitled Chords & Tabs

 

Untitled Chords & Tabs

Cure Chords & Tabs

Version: 1 Type: Tab 0 ratings
1 star 2 stars 3 stars 4 stars 5 stars
comments

Untitled Tab

Untitled

by the Cure
from the fabulous album 'disintegration'

transcribed by Christian Reindel(creindel@gmx.de)
any questions or corrections- e-mail me


Intro 
accordion
          3x                  2x
E|---------------------|---------------------|
B|--10---12---7---5----|--7--5--3----0--5----|
G|---------------------|---------------------|
D|---------------------|---------------------|
A|---------------------|---------------------|
E|---------------------|---------------------|


guitar comes in 
[ Tab from: http://www.guitartabs.cc/tabs/c/cure/untitled_tab.html ]
part 1   
E|---------------------|-----------------|----------------------|
B|--10--8-7--0--3--5-5-|--10--8-7--0--5--|---10--8-7--0--3--5-5-|
G|---------------------|-----------------|----------------------|
D|---------------------|-----------------|----------------------|
A|---------------------|-----------------|----------------------|
E|---------------------|-----------------|----------------------|


part 2
E|------------------------|----------------------------|
B|--7-7--7--8--7-7--0--5--|--7-7--7--8--7-7--0--5------|
G|------------------------|----------------------------|
D|------------------------|----------------------------|
A|------------------------|----------------------------|
E|------------------------|----------------------------|

play only part 2 when the guitar solo starts in the outro

Outro
accordion (play until the end)

E|---------------------|
B|--7--5--3----0--5----|
G|---------------------|
D|---------------------|
A|---------------------|
E|---------------------|

end.
Comments