Cure - Trust Chords & Tabs

 

Trust Chords & Tabs

Cure Chords & Tabs

Version: 3 Type: Tab 0 ratings
1 star 2 stars 3 stars 4 stars 5 stars
comments

Trust Tab

-------------------------------------------------------------------------------
			     Trust - The Cure
-------------------------------------------------------------------------------
Tabbed by:  Mike Fudge
E-mail:     make_fudge@hotmail.com


This is the tab for the piano part in "Trust"
i always wanted to play it but there was no tab... so i made my own.


[ Tab from: http://www.guitartabs.cc/tabs/c/cure/trust_tab_ver_3.html ]
(basicly just listen to the song to get the feel of it)
e|----------------|----------------|
B|----------------|----------------|
G|----------------|----------------|
D|----------------|----------------|
A|2-----------2~--|2---3---2-------|
E|---3--0--3------|-----------3~---|

e|----------------|----------------|
B|----------------|----------------|
G|----------------|----------------|
D|----------------|----------------|
A|2--3--2--3--5~--|3--2--3--2------|
E|----------------|-----------3~---|

very good song!
Comments