Cure - Three Imaginary Boys Chords & Tabs

 

Three Imaginary Boys Chords & Tabs

Cure Chords & Tabs

Version: 3 Type: Tab

Three Imaginary Boys Tab

   
here is from a legend in the making the cure by eddie callies
(hey add me girls and boys cacaeddy@hotmail.com)

verse_
    Em          G              B           Eb ?
e|--0--0--0-X---3--3--3--3-X---7-7-7-7-7---X-X-X-X-X----|
B|--0--0--0-X---3--3--3--3-X---7-7-7-7-7---0-0-0-0-0----|
G|--0--0--0-X---4--4--4--4-X---8-8-8-8-8---2-2-2-2-2----|
D|--2--2--2-X---5--5--5--5-X---9-9-9-9-9---1-1-1-1-1----|
A|--2--2--2-X---5--5--5--5-X---9-9-9-9-9---2-2-2-2-2----|
E|--0--0--2-X---3--3--3--3-X---7-7-7-7-7---X-X-X-X-X----|

chorus_
    Am             C               B
e|--5--5--5--5-X---8--8--8--8--X---7--7--7--7-7-7-7-7-7-|
B|--5--5--5--5-X---8--8--8--8--X---7--7--7--7-7-7-7-7-7-|
G|--5--5--5--5-X---9--9--9--9--X---8--8--8--8-8-8-8-8-8-|
D|--7--7--7--7-X---10-10-10-10-X---9--9--9--9-9-9-9-9-9-|
A|--7--7--7--7-X---10-10-10-10-X---9--9--9--9-9-9-9-9-9-|
E|--5--5--7--7-X---8--8--8--8--X---7--7--7--7-7-7-7-7-7-|
3x 
[ Tab from: http://www.guitartabs.cc/tabs/c/cure/three_imaginary_boys_tab_ver_3.html ]
    G         F#        F         B
e|--3--3--3---2--2--2---1--1--1---7--7--7---------------|
B|--3--3--3---2--2--2---1--1--1---7--7--7---------------|
G|--4--4--4---3--3--3---2--2--2---8--8--8---------------|
D|--5--5--5---4--4--4---3--3--3---9--9--9---------------|
A|--5--5--5---4--4--4---3--3--3---9--9--9---------------|
E|--3--3--3---2--2--2---1--1--1---7--7--7---------------|


solo
e|------------------------------------------------------|
B|------------------------------------------------------|
G|------------------------------------------------------|
D|------------------------------------------------------|
A|----------------6-6-7--9--7---5-----------------------|
E|--0---3--2--5---------------------7-7---7-7--5--3-----|

e|------------------------------------------------------------|
B|------------------------------------------------------------|
G|------------------------------------------------------------|
D|--------------------------------------------13--14--/16-17--|
A|----------------6-6-7--9--7--9--10--12--14------------------|
E|--0---3--2--5-----------------------------------------------|

there no one has tabbed it yet, so here it is isnt it good?