Cure - The Three Sisters Chords & Tabs

 

The Three Sisters Chords & Tabs

Cure Chords & Tabs

Version: 2 Type: Bass Tab 0 ratings
1 star 2 stars 3 stars 4 stars 5 stars
comments

The Three Sisters Bass Tab

Song: The Three Sisters
Band: The Cure
Album: Lost Wishes

Riff 1
G-----------------------------------
D-----------------------------------
A--5-5-5-55-55-5-5-8-8-8-80-00-0-0--  x 8  (or 16)
E-----------------------------------

(Variation on Riff 1)
G----------------------------------------
D----------------------------------------
A--5-5-5-55-55-5-5-8-8-8-812-1212-12-12--
E----------------------------------------

[ Tab from: http://www.guitartabs.cc/tabs/c/cure/the_three_sisters_btab_ver_2.html ]
Riff 2
G-----------------------------------
D-----------------------------------
A--5-5-5-55-55-5-5-8-8-8-83-33-3-3--  x 4
E-----------------------------------


Riff 3
G-----------------------------------
D--5-5-5-55-55-5-5-3-3-3-38-88-8-8--
A-----------------------------------  x 3
E-----------------------------------

G-----------------------------------
D--5-5-5-55-55-5-5-3-3-3-32-22-2-2--
A-----------------------------------
E-----------------------------------

Tabbed by Jeff Feasel
blackfly_@hotmail.com
03/04/99
Comments