Cure - The Last Day Of Summer Chords & Tabs

 

The Last Day Of Summer Chords & Tabs

Cure Chords & Tabs

Version: 2 Type: Tab 0 ratings
1 star 2 stars 3 stars 4 stars 5 stars
comments

The Last Day Of Summer Tab

I really love this song, it's so simple and I've got most of the guitar work
done. I have the bass parts but those are really guessed and most likely wrong anyway.

Anyway, Robert plays this on some pretty thick and heavy guitar. I think it's the
Gretsch Silver Falcon? I forget the name of it. I don't really know what effects
he uses, but I just play it clean.

1st verse
|-----------------------------------------|
|-----------------------------------------|
|-----------------------------------------|
|-12-------9--10-9----------10-9----------|
|----10-12---------10------------10-------|
|---------------------10-12---------12-10-|

|-----------------------------------------|
|-----------------------------------------|
|-----------------------------------------|
|-12-------9--10-9----------10-9----------|
|----10-12---------10------------10----10-|
|---------------------10-12---------12----|

2nd verse (2x)
|-------------------------------------------------------------
|-------------------------------------------------------------
|-------------------------------------------------------------
|-10-10-10-10-9-----10-10-10-10-9-12--10-9-10-9-----9-10-9----
|---------------10------------------------------10---------10-
|-------------------------------------------------------------

------------------------|
------------------------|
------------------------|
--12-12-12-10-9-10-9----|
---------------------12-|
------------------------|
[ Tab from: http://www.guitartabs.cc/tabs/c/cure/the_last_day_of_summer_tab_ver_2.html ]
Chorus (2x)
|----------------------------------------------------------------|
|----------------------------------------------------------------|
|----------------------------------------------------------------|
|-------9-------------10-9-----------9-------10-12-10-9----------|
|-10-12---12-10------------10--10-12---12-10------------12-10----|
|---------------10-12-----------------------------------------12-|

First mini-solo thing
|-------------------------------------------------------------------------
|-------------------------------------------------------------------------
|-12-12-12-12-11----12-12-11----------------------------------------------
|----------------12----------12-9-9-10-10-9-10-12-12----------------------
|----------------------------------------------------10-10-12-10-12-10-12-
|-------------------------------------------------------------------------

--------------------------------------------------------------------------
----------------------------------------------10-10-10-12-12-12---12-12-12
----------------------------------12-12-12-12-------------------9---------
-9-9-9-10-10-10-12-12-12--------------------------------------------------
-------------------------10-10-10-----------------------------------------
--------------------------------------------------------------------------

--------------------------------------------------------------------
--------------------------------------------------------------------
-9------------------------------------------------------------------
---9-9-10-10-9-10-12-12----------------------9-9-9-10-10-10-12-12-12
------------------------10-10-12-10-12-10-12------------------------
--------------------------------------------------------------------

----------------------------------------------|
----------10-10-10-12-12-12-13-13-13-15-15-15-|
-12-12-12-------------------------------------|
----------------------------------------------|
----------------------------------------------|
----------------------------------------------|

I haven't worked out the second solo, but I will sometime soon. But if anyone
could figure it out email me. And um...if there are any mistakes email me again.
Comments