Cure - The Last Day Of Summer Chords & Tabs

 

The Last Day Of Summer Chords & Tabs

Cure Chords & Tabs

Version: 1 Type: Tab 0 ratings
1 star 2 stars 3 stars 4 stars 5 stars
comments

The Last Day Of Summer Tab

The Cure - The Last Day Of Summer
Tabbed By: Myke
EMail: A_Violet_Fluid@hotmail.com

Standard Tuning


Intro/Verse:

|--0--------0--------0--------3--|
|--3--------1--------1--------3--|
|--0--------2--------0--------0--|
|--2--------2--------2--------0--|
|--2--------0--------3--------2--|
|--0--------------------------3--|

Chorus:
[ Tab from: http://www.guitartabs.cc/tabs/c/cure/the_last_day_of_summer_tab.html ]
|--0--------0--------0--------3--|
|--1--------1--------3--------3--|
|--0--------0--------0--------0--|
|--2--------2--------0--------0--|
|--0--------3--------2--------2--|
|--------------------0--------3--|

Bridge:

|--1--------0--------0--------3--|
|--1--------1--------0--------3--|
|--2--------2--------2--------0--|
|--3--------2--------2--------0--|
|--3--------0--------2--------2--|
|--1-----------------0--------3--| 

|--1----1----1----1--|
|--1----1----1----1--|
|--2----2----2----2--|
|--3----3----3----3--|
|--3----3----3----3--|
|--1----1----1----1--| 

Does Anyone Know Where I Can Get Any Bloodflowers
Guitar Tabs. If So The Please Email Me And Tell Me.
Comments