Cure - The End Of The World Chords & Tabs

 

The End Of The World Chords & Tabs

Cure Chords & Tabs

Version: 2 Type: Tab 0 ratings
1 star 2 stars 3 stars 4 stars 5 stars
comments

The End Of The World Tab

   
Tabbed by:Ryan Copley

k this may not be correct or any thing but it works when i play it(not to sure on the 
want me to cry and play my part" section)

this is the riff that goes along with roberts singing

E--------------------------------------|
B--------------------------------------|
G--------------------------------------|
D--------------------------------------|
A-7-5-7-5-------7-5-5------------------|
E---------8-5-8-------8----------------|

C         A         E                   G
go if you want to i never tried to stop you

E--------------------------------------|
B--------------------------------------|
G--------------------------------------|
D--------------------------------------|
A-7-5-7-5-------7-5-5------------------|
E---------8-5-8-------8----------------|

C           A            E                   G
know theres a reason for all of this you're feeling

E--------------------------------------|
B--------------------------------------|
G--------------------------------------|
D--------------------------------------|
A-10-8-10-8------------10-8-8----------|
E-----------12-10-10-8--------12-*8----|(*not in the song but i play it)

C            A       E                 G       C
Love its not my call you couldn't ever love me more
that riff repeats for all the verses

Chorus:Dm      F
             You couldn't love me more x2

verse:same riff as before
[ Tab from: http://www.guitartabs.cc/tabs/c/cure/the_end_of_the_world_tab_ver_2.html ]
C              D               E    C              D            E
You want me to cry and play my part I want you to sigh and fall apart
C             D     E     E#
We want this like everyone else ----- (like i said not to sure bout that part..fool 
with it until it sounds right)

verse: again, same riff

Chorus: Dm F

"You want me to lie not break your heart....":C D E x2 E D E E#


E-----------------------------------------|
B-----------------------------------------|
G--0---------------5----------------------|
D--9---------------7----------------------|
A--7---------------7----------------------|
E--0---------------5----------------------|

   Maybe we didnt understand
   Not just a boy and a girl
   Its just the end of the
   end of the world

verse:same riff as before
then song end with the chorus four times, ill paste song lyrics a tthe bottom so you 
what parts go and stuff..Enjoy..tabbed by Ryan Copley

Go if you want to
I never tried to stop you
Know there's a reason
For all of this you're feeling
Love its not my call
You couldnt ever love me more
You couldnt love me more
You couldnt love

Me I dont show much
Its not that hard to hide you
See in a moment
I cant remember how to
Be all you wanted
I couldnt ever love you more
I couldnt love you more
I couldnt love
You want me to cry and play my part
I want you to sigh and fall apart
We want this like everyone else

Stay if you want to
I always wait to hear you
Say there's a last kiss
For all the times you run this
Way its not my fault
You couldnt ever love me more
You couldnt love me more
You couldnt love

Love me more
Couldnt ever love me more
I couldnt love you more
I couldnt love

You want me to lie not break your heart
I want you to fly not stop and start
We want us like everything else

Maybe we didnt understand
Not just a boy and a girl
Its just the end of the
end of the world

Me i dont say much
Its far too hard to make you
See in a moment
I still forget just how to
Be all you wanted
I couldnt ever love you more
I couldn't love you more [x4]
Comments