Cure - Seventeen Seconds Chords & Tabs

 

Seventeen Seconds Chords & Tabs

Cure Chords & Tabs

Version: 1 Type: Bass Tab

Seventeen Seconds Bass Tab

Riff 1

           
G-|-9---7---9--|--------------------|
D-|------------|-^9~^~--------------|
A-|------------|--------------------|
E-|------------|--------------------|


Riff 2

  
G-|-----------------|-----------------|
D-|-----------------|-----------------|
A-|-----------------|-----------------|
E-|-5-5-5-5-5-5-5-0-|-1-1-1-1-1-1-1-0-|

[ Tab from: http://www.guitartabs.cc/tabs/c/cure/seventeen_seconds_btab.html ]
Riff 3
  
G-|-------------------|--------------------|
D-|-------------------|--------------------|
A-|-------------------|--------/5----3-----|
E-|-5------3----0-3-5-|-1--------------5-3-|


Intro
  only drums (4 bars) 
  drums + guitar (7 bars)
  Riff 1 (x8)
  Riff 2 (x4)
  Riff 3 (x4)
Verse 1
  Riff 3 (x4)
Verse 2
  Riff 3 (x4)
Verse 3
  Riff 3 (x4)
Chorus
  Riff 3 (x4)
End
  Riff 2 (x4)
  Riff 1 (x8)
  guitar+drums (7 bars)
  drums (2 bars)