Cure - Other Voices Chords & Tabs

 

Other Voices Chords & Tabs

Cure Chords & Tabs

Version: 2 Type: Bass Tab 0 ratings
1 star 2 stars 3 stars 4 stars 5 stars
comments

Other Voices Bass Tab

"Other Voices" by The Cure from Staring at the Sea--The Singles


Here's another cool bassline from that favorite band of mine. I think a pick might be used, so use so if you desire. I tried to be as accurate notewise as I could. Also listen closely to the rhythm in case I put too many #'s.
4/4 time, B minor


wait until after intro...1st note on a pick-up...


figure 1--repeat 8 times


G---|---------------|-------------------|
D---|---------------|-------------------|
A---|----------5----|-------------------|
E-5-|-7--7-7-7----0-|-2--2-2-2-3--2-0-5-|


figure 2--substitute 1st note of this figure with last note of figure one on the 8th time 
[ Tab from: http://www.guitartabs.cc/tabs/c/cure/other_voices_btab_ver_2.html ]
G---|------------------|--------------------|-----------------|---------------------|
D---|------------------|--------------------|-----------------|---------------------|
A-5-|-7--7-7-7-----2-|-4--4-4-4-5-4-2-5-|-7--7-7-7----2-|-4--4-4-4-5-4------|
E---|-------------3----|--------------------|------------3----|------------------2-5-|


repeat figure 1 4 times.... keep playing figure 1 on 1st verse--"whisper you name..."


figure 3--verse 1


G-------------------|--------------------|-----------------|------------------|
D-------------------|--------------------|-----------------|------------------|
A-------------------|--------------------|-----------------|------------------|
E-2--2-2-2-2-3-3--|-0--0-0-0-0-2-3-0-|-2--2-2-2-3--0-|-2--2-2-2-3--0-|


back to figure 1...


figure 4 (verse 2)--repeat 3 times


G-------------------|-------------------|---------------|--------------------|
D-------------------|-------------------|---------------|--------------------|
A-4--4-4-4-4-----4-|-5--5-5-5-5-------|--------------|-------------------|
E-------------0-2---|------------0-2-5-|-7--7-7-7-7-5-|-2--2-2-2-5-0-2-5-|


on the 3rd repeat, skip the las bar & go straight into figure 1, playing figure 1 until the end
Comments