Cure - Lullaby Chords & Tabs

 

Lullaby Chords & Tabs

Cure Chords & Tabs

Version: 3 Type: Tab 0 ratings
1 star 2 stars 3 stars 4 stars 5 stars
comments

Lullaby Tab

Intro: The Cure- Lullaby


e|--------4--------4------4------------4--0--2-2--4--------4---0--2-2--4----|
B|----2---0---2-2--0--2---0--0--2--2---0----------0---2----0-----------0--2-|
G|----------4---------------------------------------------------------------|
D|--------------------------------------------------------------------------|
A|--------------------------------------------------------------------------|
E|--------------------------------------------------------------------------|

[ Tab from: http://www.guitartabs.cc/tabs/c/cure/lullaby_tab_ver_3.html ]
e|----------4-----------4------4-----------4--0--2-2---4-------4---0-2-2--4-|
B|--2-------0-----2-2---0--2---0--0--2--2--0-----------0---2---0----------0-|
G|----4--------4------------------------------------------------------------|
D|--------------------------------------------------------------------------|
A|--------------------------------------------------------------------------|
E|--------------------------------------------------------------------------|
                    
                  
e|-----------|       *****   *    *   ****    *****
B|-2---2-----|      *        *    *   *   *   *
G|-------4---|     *         *    *   * **    ****    
D|-----------|      *        *    *   *  *    *
A|-----------|       *****    ****    *   *   *****
E|-----------|    




This was my first submitted tab, so enjoy!
Tabber: Michael Parrish
Comments